Oops, an error
Loading. Please wait.

Veiled In Grey Tab

6,508 views 3 this week
no commentswrite comment
1 2 3 4 5
1 last vote to show rating
add to favorites
launch autoscroll
font size
0
reset
how to read this tab
guitar tuner
Autoscroll
slow
fast
+/-
esc
set tempo
stop
Help us to improve Ultimate-Guitar.com Take our survey!
×
Author
Band : Mystery Jets
Song : Veiled In Grey
Album: Twenty One
Tabbed By: Calum (afirock74@hotmail.com)

x   - Palm Mute
b   - Bend
b~  - Bend Up Then Down
h   - Hammer-On Directly After Note Before


Intro/Verse Guitar 1:
e|-----------------|--5-5-5-5--55--|--5-5-5-5------7-7-7-7-------|
B|--9-9-9-9--------|--5-5-5-5--55--|--5-5-5-5-5-5--7-7-7-7-------|
G|--9-9-9-9--88----|--6-6-6-6--55--|--6-6-6-6-5-5--7-7-7-7-------|
D|--9-9-9-9--99----|--7-7-7-7--66--|--7-7-7-7-6-6--9-9-9-9-9-9---|
A|--7-7-7-7--77----|--7-7-7-7--77--|--7-7-7-7-7-7--9-9-9-9-6-6---|
E|--------------0--|--5-5-5-5--55--|--5-5-5-5-5-5--7-7-7-7-7-7---|


Intro/Verse Guitar 2
e|-----------------|---------------|-----------------------------|
B|-----------------|---------------|-----------------------------|
G|-1-1-1-1---------|-2-2-2-2-------|--2-2-2-2------4-4-4-4-------|
D|-2-2-2-2---------|-2-2-2-2--66---|--2-2-2-2--66--4-4-4-4--11---|
A|-2-2-2-2--66-----|-0-0-0-0--00---|--0-0-0-0--00--2-2-2-2--22---|
E|-0-0-0-0--00-----|---------------|-----------------------------|

Pre-Chorus:
e|-------------9---------0----|
B|-------------9---------0----|
G|-6--7--------9---8--8--2----|
D|-7--9--------11--9--9--2----|
A|-7--9--------11--6--6--0----|
E|-5--7--9-9-9-9--------------|
         x x x

2nd Pre-chorus Riff (repeated):
e|-----|
B|-14--|
G|-13--|
D|-11--|
A|-----|
E|-----|


Last Chorus:
e|----------------4------5--------|
B|--9-------------5------5--------|
G|--9------8------6------6--------|
D|--9------9------6------7--------|
A|--7-x16--6-x16--4-x16--7--x16---|
E|-----------------------5--------|
Suggest correction
Give kudos to tab author, rate the tab!
1 2 3 4 5
comments
print report bad tab
guest
You may want to rate the tab now too:
select rating
Wanna post a correction for this tab? Suggest correction