Oops, an error
Loading. Please wait.

Young Love Bass

version 1
version 1

Whole song

Interactive

9,434 views 6 this week
3 commentsread comments
1 2 3 4 5
x 3
add to favorites
launch autoscroll
font size
0
reset
guitar tuner
×
Best way to learn
"Young Love"
Autoscroll
slow
fast
+/-
esc
set tempo
stop
-------------------------------------------------------------------------------
			     YOUNG LOVE - Mystery Jets
-------------------------------------------------------------------------------

Tabbed By : Tanjamin
e-mail: ben.c.tan@gmail.com

Tuning: Standard

Intro/Chorus

G|--------------------------|
D|--------------------------|
A|-----------7--------9--7--|
E|--0--7--9-----0--7--------|

Verse

G|--------------------------------------|
D|--------------------------------------|
A|--777---------------------------------|
E|------9--7--4--0------0---4---7---9\--|

G|--------------------------------------|
D|-------------------------------4---6--|
A|--777-----------------/4---7----------|
E|------9--7--4--5----------------------|

"Whoa whoa whoa..."

G|-------------------------------------------------------------------|
D|-------------------------------------------------------------------|
A|-------------------------------------------------------------------|
E|--9---9-9-9-0-0-0-0-2-2-2-2-4-4-4-5---5-5-5-0-0-0-0-2-2-2-2-4-4-4--|

| /  slide up
| \  slide down
| h  hammer-on
| p  pull-off
| ~  vibrato
| +  harmonic
| x  Mute note

Sounds mostly right from what I can make out, but comments and corrections are welcome!

===============================================================================
Suggest correction
Give kudos to tab author, rate the tab!
1 2 3 4 5
comments
print report bad tab
3 comments total.
0 reply
PimvdMoosdijk 102 Aug 14, 2008 01:14 PM

If you watch the vid on youtube, you can cleary see him play it, this sounds ok, but it's not what he actualy plays!
4****

0 reply
Tanjamin 183 Aug 15, 2008 08:31 AM

lol damn, why didn't I think of that? oh well thanks anyways!

0 reply
bigshoes= 72 Aug 18, 2008 11:28 AM

its more then good enough. some of the slides especially the one on the second part of the chorus are not needed

guest
You may want to rate the tab now too:
select rating
Wanna post a correction for this tab? Suggest correction