Oops, an error
Loading. Please wait.

Young Love Tab

version 1
version 1

Whole song

Interactive

24,192 views 1 this week
3 commentsread comments
1 2 3 4 5
x 5
add to favorites
launch autoscroll
font size
0
reset
how to read this tab
guitar tuner
Autoscroll
slow
fast
+/-
esc
set tempo
stop
Help us to improve Ultimate-Guitar.com Take our survey!
×
Author
Band : Mystery Jets
Song : Young Love
Album: Twenty One
Tabbed By: Calum (afirock74@hotmail.com)

x   - Palm Mute
b   - Bend
b~  - Bend Up Then Down
h   - Hammer-On Directly After Note Before

Intro:
e|-------------|
B|-------------|
G|-------------|
D|-----2---4-2-|
A|--2-4--4-----|
E|-0-----0-----|
   xx x  x  


Intro 2 / Chorus:
e|---4-4-2--0-0--------9-7--5--|
B|---5-5-5--3h5-4------7-7--5--|
G|---4-4-4-------4-----8-8--6--|
D|---2-2---------------9-9--7--|
A|---2---------------0---------|
E|-0---------------------------|


Verse:
e|------------------------------------------------|
B|------------------------------------------------|
G|------------------------------------------------|
D|-222--------------------222-------------2-4-6---|
A|-----4-2-------------2-------4-2--0--2/4--------|
E|----------4-0--0-2-4------------4---------------|


Bridge Guitar 1:
e|-4-----2-----0----2---|
B|-5-----2-----0----2---|
G|-6-----2-----2----2---|
D|-6-----4-----2----4---|
A|-4-----4-----0----4---|
E|-------2----------2---|


Bridge Guitar 2:
e|-----------------------------------------------|
B|-----------------------------------------------|
G|-----------------------------------------------|
D|-6-6-6-6---------------------------------------|
A|--4-4-4-4-4-4-4--6-6-7-7-7-7--4-4-4-4-6-6-6----| x2
E|-----------2-2-2--4-4-5-5-5-5--2-2-2-2-4-4-4---|

Suggest correction
comments
print report bad tab
3 comments total.
0 reply
ds.x 10 Apr 03, 2009 12:36 PM

i find that bass hard as f*ck to play:(

0 reply
Zoso518 154 Nov 28, 2009 09:15 PM

great tabbbing of such a difficult yet amazing song.

0 reply
robsuj 92 Feb 07, 2010 04:38 PM

the original is easier than tht

gd tab tho :D

guest
You may want to rate the tab now too:
select rating
Wanna post a correction for this tab? Suggest correction