Oops, an error
Loading. Please wait.

Young Love Bass Tab

version 2
version 2

Whole song

Interactive

403 views 1 this week
no commentswrite comment
1 2 3 4 5
please rate
add to favorites
launch autoscroll
font size
0
reset
guitar tuner
Autoscroll
slow
fast
+/-
esc
set tempo
stop
Help us to improve Ultimate-Guitar.com Take our survey!
×
inro and verse
E|0-------0-------|0-------0-------|
A|--2-4-----2-----|--2-4-----2-----|
D|------2-----4-2-|------2-----4-2-|
G|----------------|----------------|

repeat

chorus 
E|----4-0-0-4----------4-------------|
A|--42---------2-4---42---0-4--------|
D|-2---------------22----------2-4---|
G|---------------------------------1-|

repeat 
Suggest correction
Give kudos to tab author, rate the tab!
1 2 3 4 5
comments
print report bad tab
guest
You may want to rate the tab now too:
select rating
Wanna post a correction for this tab? Suggest correction