Oops, an error
Loading. Please wait.

Trippin Like I Do chords

85 views 3 this week
no commentswrite comment
1 2 3 4 5
3 more votes to show rating
add to favorites
×
Save as Personal and add changes to this tab that will be seen only by you. Learn more ›
×
You can save this tab as Personal to edit and correct it or add notes. All changes will be seen only by you. Learn more »
launch autoscroll
font size
0
reset
transpose
0
reset
display chords
guitar tuner
edit
Autoscroll
slow
fast
+/-
esc
set tempo
stop
Strumming Is this strumming pattern correct? Yes No
Whole song 120 bpm
1
&
2
&
3
&
4
&
5
&
6
&
7
&
8
&
Listen
The Mystic Braves - Trippin Like I Do
NB: main riff has variations throughout the song

[Intro and main riff]
    Gm           C            F           Gm        Gm           C            F           Gm
e|------------------------------------------------------------------------------------------------|
B|------------------------------------------------------------------------------------------------|
G|------------------------------------------------------------------------------------------------|
D|------------------------------------------------------------------------------------------------|
A|---------1-3/5-3----3-5-3-1-------3-1-0-----------------1-3/5-3----3-5-3-1-------3-1-0--------1-|
E|-1-3---3--------------------1--1--------3--3-3--1-3---3--------------------1--1--------3--3-3---|

    C           Gm           F           Gm          C           Gm              D                      Gm
e|--------------------------------------------------------------------------------------------------------|
B|--------------------------------------------------------------------------------------------------------|
G|--------------------------------------------------------------------------------------------------------|
D|---------------------------------------------------------------------------------3-5---5-5-7--77777-----|
A|--3--3--3-1-0------------------------------------1-3--3--3-1-0----------1-3/5--5------------------------|
E|--------------3----3-3-3-3-1--1--1-0-1-3---3-3-3---------------3----3-3-----------------------------1-3-|

Gm

[Verse 1]
Bb
 Nobody trips like
C                    Gm
 Nobody trips like i do
Bb
 I can hardly see
C                    Gm
 I can hardly see it through
Bb
 But I'll swim right through
C                            Gm
 I'll swim right through the rain
Bb
 And I hope there's love
C              Gm
 Sweet love to gain, alright

[Interlude]
Gm    C    F     Gm
Gm    C    F     Gm
C     Gm   F     Gm
C     Gm   D
Gm

[Verse 2]
Bb
 Nobody does me
C                  Gm
 Quite like I do myself
Bb
 My mind's my own
C                 Gm
 And it's not for sale
Bb
 And I felt my spirit
C               Gm
 My spirit fly away
    Bb
But I know it's mine
  C            Gm
Until my dying day

[Interlude]
Gm    C    F     Gm
Gm    C    F     Gm
C     Gm   F     Gm
C     Gm   D
Gm

[Bridge]
  Gm                C
Nobody trips like I do
                     F                  Gm
Swimming through the rain on a hot afternoon
        Gm                C
Said, nobody trips like I do
                     F                  Gm
Swimming through the rain on a hot afternoon
          C                  Gm
I've been back to reckon the sun
             F    Gm
Climbing up a horizon
I've been back to reckon the sun
       D                Gm
As the one that we come from

[Outro]
Gm

            
            
Suggest correction
Creating personal tab
Creating personal tab
You can edit any tab online and save it as your Personal.

You can edit, replace or remove any tab part or add personal notes – all changes will be seen only by you.

Personal tabs can be accessed anytime from any device, even offline.
Learn more »
Give kudos to tab author, rate the tab!
1 2 3 4 5
comments
print report bad tab
guest
You may want to rate the tab now too:
select rating
Wanna post a correction for this tab? Suggest correction