Oops, an error
Loading. Please wait.

Constant Struggle bass

800 views 1 this week
no commentswrite comment
1 2 3 4 5
3 more votes to show rating
add to favorites
×
Save as Personal and add changes to this tab that will be seen only by you. Learn more ›
×
You can save this tab as Personal to edit and correct it or add notes. All changes will be seen only by you. Learn more »
launch autoscroll
font size
0
reset
guitar tuner
edit
Autoscroll
slow
fast
+/-
esc
set tempo
stop
Difficulty
Constant Struggle
by Mystic Roots
Tabbed by Wesley Lai

Standard Tuning

This one has 3 main lines, and it's pretty easy to tell when each are played

Line1 (main)

G---5h7-7-7-7---7-7-------5----------------------------|
D-------------------5---5---8---7----------------------|
A---------------------------------5--5-5---0-3-0-3-0---|
E------------------------------------------------------|


Line 2 (bridge)

G--------------------------------------|
D--------------------------------------|
A--------------------------0-3-0-3-0---|
E--------------------------------------|


Line 3 

G----------------------------------------------|
D-----7-7-7-7---7s8---7------------------------|
A---5-------------------5---5-5---0-3-0-3-0----|
E----------------------------------------------|


            
            
Suggest correction
Creating personal tab
Creating personal tab
You can edit any tab online and save it as your Personal.

You can edit, replace or remove any tab part or add personal notes – all changes will be seen only by you.

Personal tabs can be accessed anytime from any device, even offline.
Learn more »
Give kudos to tab author, rate the tab!
1 2 3 4 5
comments
print report bad tab
guest
Wanna post a correction for this tab? Suggest correction