Oops, an error
Loading. Please wait.

Breakout tab

4,695 views 3 this week
3 commentsread comments
1 2 3 4 5
x 3
add to favorites
×
Save as Personal and add changes to this tab that will be seen only by you. Learn more ›
×
You can save this tab as Personal to edit and correct it or add notes. All changes will be seen only by you. Learn more »
launch autoscroll
font size
0
reset
how to read this tab
guitar tuner
edit
Autoscroll
slow
fast
+/-
esc
set tempo
stop
Author
Difficulty
This is not up here so I decided to tab it in my spare time. Awesome song!

Verse
   C#        Cm7      Bm7      Cm7    Fm(Strum where necessary)
|-----------------------------------------1---|
|-6-----6--4-----4--2-----2----4----------1---|
|-----6--------3--------1------3------1---1---|
|---6--------5--------3---------------3---3---|
|-4--------3--------1----------3------3---3---|
|-------------------------------------1---1---|

repeat until chorus

sometimes in the verse the high e string is hit for
each chord shape. for C# - 4  for Cm7 - 3 Bm7 - 1

Chorus
 Cm7 Bm7 Fm  C#   ?  ?
|--------8-----4---------|
|-8---6--9---6-6--6--5---|
|-8---6--10--6-6--6--6---|
|-8---6--10--6-6--5--5---|
|-10--8--8---------------|
|------------------------|

Other verses and choruses similar.
Ending is just strumming the verse chords.
Listen to song for verse and chorus strumming and timing.
If you want any other N.E.R.D songs tabbed just ask. 

            
            
Suggest correction
Creating personal tab
Creating personal tab
You can edit any tab online and save it as your Personal.

You can edit, replace or remove any tab part or add personal notes – all changes will be seen only by you.

Personal tabs can be accessed anytime from any device, even offline.
Learn more »
Give kudos to tab author, rate the tab!
1 2 3 4 5
comments
print report bad tab
3 comments total.
0 reply
KtheSilencer 170 Oct 26, 2007 04:05 PM

the Bm should be Bbm ;)

0 reply
ibanez_uchiha 207 Mar 11, 2010 03:10 PM

Chorus
Cm7 Bm7 Fm C# ? ?
|--------8---------------|
|-8---6--9---6-9--5--5---|
|-8---6--8---6-6--6--6---|
|-8---6--10--6-6--5--5---|
|-10--8--8---8-8--7--7---|
|------------------------|

Sounds a little more accurate to me

0 reply
bassclefchef47 10 Jan 17, 2014 01:53 AM

Any bass tabs for this song?

guest
You may want to rate the tab now too:
select rating
Wanna post a correction for this tab? Suggest correction