Oops, an error
Loading. Please wait.

La Fin tab

109 views 1 this week
no commentswrite comment
1 2 3 4 5
3 more votes to show rating
add to favorites
×
Save as Personal and add changes to this tab that will be seen only by you. Learn more ›
×
You can save this tab as Personal to edit and correct it or add notes. All changes will be seen only by you. Learn more »
launch autoscroll
font size
0
reset
how to read this tab
guitar tuner
edit
Autoscroll
slow
fast
+/-
esc
set tempo
stop
Capo en el TERCER traste

Intro:
   Gm
E-------------------|
B---3-----3-----3---|
G-----3-----3-----3-|
D-------------5-----|X8
A-------5-----------|
E-3-----------------|

Verso:
    Gm                    Gm7                Cm
E-------------------|  -------------------|-------------------|
B---3-----3-----3---|  ---6-----6-----6---|---4-----4-----4---|
G-----3-----3-----3-|  -----3-----3-----3-|-----5-----5-----5-|
D-------------5-----|X7-------------5-----|-------5-----5-----|x4
A-------5-----------|  -------5-----------|-3-----------------|
E-3-----------------|  -3-----------------|-------------------|

    D7                    Gm
E-------------------|  -------------------|
B---3-----3-----3---|  ---3-----3-----3---|
G-----5-----5-----5-|  -----3-----3-----3-|
D-------4-----4-----|X4-------------5-----|
A-5-----------------|  -------5-----------|
E-------------------|  -3-----------------|


Coloquen el capo en el tercer trasto y toquen los acordes Em, Em7,Am y B7
en lugar de Gm, Gm7, Cm y D7
El final lo pueden tocar a ritmo ranchero o polka, eso es a su gusto.
Les recomiendo que la practiquen bastante porque se toca muy rapido,
pero es mas sencilla de lo que parece.
Suerte
Suggest correction
Creating personal tab
Creating personal tab
You can edit any tab online and save it as your Personal.

You can edit, replace or remove any tab part or add personal notes – all changes will be seen only by you.

Personal tabs can be accessed anytime from any device, even offline.
Learn more »
Give kudos to tab author, rate the tab!
1 2 3 4 5
comments
print report bad tab
guest
Wanna post a correction for this tab? Suggest correction