Oops, an error
Loading. Please wait.

Ocho Y Medio tab

132 views 6 this week
no commentswrite comment
1 2 3 4 5
3 more votes to show rating
add to favorites
×
Save as Personal and add changes to this tab that will be seen only by you. Learn more ›
×
You can save this tab as Personal to edit and correct it or add notes. All changes will be seen only by you. Learn more »
launch autoscroll
font size
0
reset
how to read this tab
guitar tuner
edit
Autoscroll
slow
fast
+/-
esc
set tempo
stop
aquí la forma casi exacta de cómo tocar ocho y medio.

Los acordes usados son C Dm G C F Em Am se repiten sucesivamente
a lo largo de la canción  con el mismo arpegeo y algunas pequeñas
variaciones. Para tratar de no hacerla tan extensa (aunq no creo
lograrlo) solo mostrare al principio el arpegeo de los acordes y
después solo pondré los acordes con sus respectivas variaciones.
Escuchar la canción y marcar bien los tiempos (ja todo mundo dice eso)


Intro
--------
                                                        x2
C
|-----------3-|-----------3-|-----------3-|-------------3-|
|---1---1-----|---1---1-----|---1---1-----|---1-----1-----|
|---------0---|---------0---|---------0---|-----------0---|
|-----2-------|-----2-------|-----2-------|-----0/2-------|
|-3-----------|-3-----------|-3-----------|-3-------------|
|-------------|-------------|-------------|---------------|

---------

C
|-----------3-|-----------3-|-----------3-|-------------3-|
|---1---1-----|---1---1-----|---1---1-----|---1-----1-----|
|---------0---|---------0---|---------0---|-----------0---|
|-----2-------|-----2-------|-----2-------|-----0/2-------|
|-3-----------|-3-----------|-3-----------|-3-------------|
|-------------|-------------|-------------|---------------|
Miro al techo que hoy


Dm
|-----------1-|-----------1-|-----------1-|-----------1-|
|---3---3-----|---3---3-----|---3---3-----|---3---3-----|
|---------2---|---------2---|---------2---|---------2---|
|-----0-------|-----0-------|-----0-------|-----0-------|
|-0-----------|-0-----------|-0-----------|-0-----------|
|-------------|-------------|-------------|-------------|
ha vuelto a gotear

G
|-----------3-|-----------3-|-----------3-|-----------3-|
|---3---3-----|---3---3-----|---3---3-----|---3---3-----|
|---------0---|---------0---|---------0---|---------0---|
|-----0-------|-----0-------|-----0-------|-----0-------|
|-2-----------|-2-----------|-2-----------|-2-----------|
|-------------|-------------|-------------|-------------|
Hacía tiempo que

C
|-----------3-|-----------3-|-----------3-|-------------3-|
|---1---1-----|---1---1-----|---1---1-----|---1-----1-----|
|---------0---|---------0---|---------0---|-----------0---|
|-----2-------|-----2-------|-----2-------|-----0/2-------|
|-3-----------|-3-----------|-3-----------|-3-------------|
|-------------|-------------|-------------|---------------|

no llovía así

C                                          Dm
Y cada gota golpeando contra los cacharros de metal

               G                          C
Me hace pensar unas veces en sangre y otras veces en ti

Em                                 F
Lo que en realidad viene a ser lo mismo

Dm
Lo que por crueldad. Ahora viene a dar igual.


Riff 1

G              C1      Am      Dm
|-----------3-|-----0-|-----0-|---------1-|
|---3---3-----|---1---|---1---|---3---3---|
|---------0---|-------|-------|-----------|
|-----0-------|-3-----|-2-----|-----0-----|
|-2-----------|-------|-------|-0---------|
|-------------|-------|-------|-----------|


G              C             Am            Dm            Dm
|-----------3-|-----------3-|-----------0-|-----------1-|-----------1-|
|---3---3-----|---1---1-----|---1---1-----|---3---3-----|---3---3-----|
|---------0---|---------0---|---------2---|---------0---|---------0---|
|-----0-------|-----2-------|-----2-------|-----0-------|-----0-------|
|-2-----------|-3-----------|-0-----------|-3-----------|-3-----------|
|-------------|-------------|-------------|-------------|-------------|
O puede ser un ángel que     una vez perdió la fe y fue expulsado

G              C1      Am      Dm
|-----------3-|-----0-|-----0-|---------1-|
|---3---3-----|---1---|---1---|---3---3---|
|---------0---|-------|-------|-----------|
|-----0-------|-3-----|-2-----|-----0-----|
|-2-----------|-------|-------|-0---------|
|-------------|-------|-------|-----------|

G                 C              Am           Dm
Y que ha venido a agonizar justo encima de mi hogar

        Dm          Riff1
Y estas gotas sean sus lágrimas

G               C       Am           Dm
O puede que sea hora de entrar ya en razón

G           C             Am             Dm
Y llegar a comprender que dentro de este horror

Dm             Riff 1
No hay literatura, no

       G          C       Am       Dm   G
Y eso tú lo sabes bien a fuerza de caer una y otra

Riff 2
|-----------|
|-----------|
|-----------|
|-----------|
|-3---3-2-0-|
|-----------|
vez.


Am  Am                Dm           G           Riff 2                 Am
    En una trampa mortal que en el tiempo dura ya ocho años y medio

      Dm        G                C
Seré muy breve: te quiero y esto duele


C                                Dm
Y vino un pájaro a posarse en mi ventana

G                                   C
Tenía una ala rota y su plumaje era gris y azul

C                                              Dm
Y al acercar mi mano y comprobar que no echaba a volar

      G                   C
Supe de inmediato que lo enviabas tú

Em             F         Dm
Lo tomé entre mis garras y lo dejé morir

                   Riff 1
Y, cuando lo hizo, aún llovía aquí

    G          C            Am      Dm           Dm    Riff 1
Y la sangre al gotear entre garras de animal presagió mi suerte

G              C            Am       Dm     Dm          Riff1
Como un ave que voló de Madrid hacia Gijón aún herida de muerte

G               C           Am              Dm
Reescribendo la espiral de prometer hacerlo bien,

G                   C
De cometer un nuevo error,

    Am               Dm      Dm           riff 1
De no saber pedir perdon o pedirlo demasiadas veces

               G          C        Am          Dm
Y aunque ahora escupo una oración helado de terror

        G           Riff 2   Am
Ningún dios responde aún

Am                Dm           G       Riff 2           Am
¿Soy yo el que no ve o es que todavía no se hizo la luz?

Am       Dm      G                C
Seré muy breve: te extraño y esto duele


Em                        F
   Trato de encontrar una salida

Dm                                  riff 1
Pero no recuerdo ni por dónde hemos entrado aquí

G                   C       Am            Dm
Y contemplo junto a mí el cadaver del que fui,

Dm               riff 1
Según tú, en una ocasión

         G             C        Am            Dm
Y es la mancha de humedad la de la herida mortal

Dm             riff 1
Impregnada en el colchón

         G                C
Y ahora que te oigo llorar

       Am              Dm        G            C
En lugar de ir hacia a ti me vuelvo a anestesiar

        Am       Dm          Dm     Riff 1
Y me limito a subir el volumen del televisor

            G           C       Am           Dm
O me concentro en recordar para no pensar en ti

    G           C                   Am         Dm
Que tendría que llamar que alguien venga a reparar

    Dm        riff 1
La gotera de una puta vez

            G      C     Am            Dm
Que ya cansé de recoger litros de agua gris

G             riff2 Am             Dm          G           riff 2  Am
Gris como un metal que un día relució y que ahora es suciedad

Am                 Dm           G     riff 2  Am
¿Cómo se hace para amar lo que quise despreciar ya una y mil veces?
Am        Dm   G                      C
Seré muy breve: te he perdido y esto duele.


Gracias gracias gracias.

Postdata
Please sean amables con mi transcripción me llevo mucho tiempo.
Es decir califiquenla bien

            
            
Suggest correction
Creating personal tab
Creating personal tab
You can edit any tab online and save it as your Personal.

You can edit, replace or remove any tab part or add personal notes – all changes will be seen only by you.

Personal tabs can be accessed anytime from any device, even offline.
Learn more »
Give kudos to tab author, rate the tab!
1 2 3 4 5
comments
print report bad tab
guest
Wanna post a correction for this tab? Suggest correction