Oops, an error
Loading. Please wait.

Verano Fatal chords

version 1
version 1

Whole song

290 views 1 this week
no commentswrite comment
1 2 3 4 5
3 more votes to show rating
add to favorites
×
Save as Personal and add changes to this tab that will be seen only by you. Learn more ›
×
You can save this tab as Personal to edit and correct it or add notes. All changes will be seen only by you. Learn more »
launch autoscroll
font size
0
reset
transpose
0
reset
display chords
guitar tuner
edit
Autoscroll
slow
fast
+/-
esc
set tempo
stop
Strumming
There is no strumming pattern for this song yet. and get +5 IQ
Escuchen bien la cancion en la parte del inicio
y tambien en las partes que dice "un verano fatal"(que es donde
de aplica tambien el punteo)por que hay una diferencia en esas
dos partes,se los digo para que no se equivoquen.
Una cosa mas,esta cancion es mejor si la cantan a dueto(y por dueto
me refiero a un hombre y una mujer)


Capo en segundo traste
(si no lo ponen en el segundo traste,los punteos no sonaran bien)

Intro:
                 Am                   Am
-----------------0--------------------0
-----------------1--------------------1
-----------------2--------------------2
-----------------2-----------3-2------2
----------3-0----0---3-0-3-0----------0
-3-0-3-0---------0--------------------0
                 Am                   Am
-----------------0--------------------0
-----------------1--------------------1
-----------------2--------------------2
-----------------2-----------3-2------2
----------3-0----0---3-0-3-0----------0
-3-0-3-0---------0--------------------0


E                 Am                   E
Te vi en un escenario intentando disparar
                  Am                         E
a este chico solitario, no me tengo que acercar,
                   Am                      E
tus ojos me encontraron en la última canción,
                     Am                   E
no sé si era una promesa o una premonición.


E                           C                            E
Te observo al descender y una extraña sensación después,
                      Am                       E
cómo poco a poco me voy empezando a encoger,
                           C                   E
llegando a la ciudad la mujer del tiempo nos dirá
                              Am
que a una primavera en calma siempre le sucederá...

                 Am                  Am
-----------------0-------------------0
-----------------1-------------------1
-----------------2-------------------2
-----------------2----------3-2------2
----------3-0----0--3-0-3-0----------0
-3-0-3-0---------0-------------------0
un verano fatal...un verano fatal.

                 Am                  Am
-----------------0-------------------0
-----------------1-------------------1
-----------------2-------------------2
-----------------2----------3-2------2
----------3-0----0--3-0-3-0----------0
-3-0-3-0---------0-------------------0


E                      Am                       E
No tenemos que escondernos alguien nos encontrará,
                          Am                      E
hacer siempre lo incorrecto es una forma de acertar,
                      Am                   E
la mañana nos recoge donde muere la ciudad,
                      Am
yo buscando tu fuerza y tú mi debilidad.


E                         C                        E
Te vuelvo a escuchar en esa forma especial de hablar,
                          Am                   E
para ser un buen cantante tienes que desafinar,
                        C                          E
hoy hace más calor y me tienes atrapado en tu rincón,
                              Am
quien podría imaginar lo que nos iba a deparar...

                 Am                  Am
-----------------0-------------------0
-----------------1-------------------1
-----------------2-------------------2
-----------------2----------3-2------2
----------3-0----0--3-0-3-0----------0
-3-0-3-0---------0-------------------0
un verano fatal...un verano fatal.

                 Am                  Am
-----------------0-------------------0
-----------------1-------------------1
-----------------2-------------------2
-----------------2----------3-2------2
----------3-0----0--3-0-3-0----------0
-3-0-3-0---------0-------------------0


E-Am
E-Am
E-Am
E-Am
(Osease que esta es la parte que canta Christina,pero sin cantar)

E-C
E-Am
E-C
E-Am
(Esta parte es la que canta Nacho,pero solo tarareando la letra)


G                         F                       G
Y aquí las noches llegan y nos pasan como un reactor
                                             F
y todo lo que nace, nace casi como por error,
G                                             F
y las gaviotas chillan que ya está cerca el final de...

                 Am                  Am
-----------------0-------------------0
-----------------1-------------------1
-----------------2-------------------2
-----------------2----------3-2------2
----------3-0----0--3-0-3-0----------0
-3-0-3-0---------0-------------------0
un verano fatal...un verano fatal.

                 Am                  Am
-----------------0-------------------0
-----------------1-------------------1
-----------------2-------------------2
-----------------2----------3-2------2
----------3-0----0--3-0-3-0----------0
-3-0-3-0---------0-------------------0


E                      Am                        E
Te pierdo entre la gente que ha venido a celebrar
                   Am                               E
que llega el presidente y dice que nos va a salvar,
                       Am                      E
veo pasos en la orilla y te vuelvo a encontrar
                       Am
en el agua de rodillas cruzando hacia altamar.


E                         C                       E
Y hablamos del amor pero es la hora del adiós
                          Am                E
y el viejo que nos amenaza con su acordeón
                             C                    E
y al huir de la ciudad la mujer del tiempo nos dirá
                                  Am
que a un otoño desastroso siempre le precederá...

                 Am                  Am
-----------------0-------------------0
-----------------1-------------------1
-----------------2-------------------2
-----------------2----------3-2------2
----------3-0----0--3-0-3-0----------0
-3-0-3-0---------0-------------------0
un verano fatal...un verano fatal.

                 Am                  Am
-----------------0-------------------0
-----------------1-------------------1
-----------------2-------------------2
-----------------2----------3-2------2
----------3-0----0--3-0-3-0----------0
-3-0-3-0---------0-------------------0


Y pues eso seria todo de mi parte...
un saludo a los amantes de la buena musica
y uno en especial para Imelda Yazmin
que la amo con todo mi corazon
Y recuerda Yazmin..."Si no pierdes al fin la razon,
sabras que no hay mas que una solucion:I...MEL...DA"


Que tengan suertecita

            
            
Suggest correction
Creating personal tab
Creating personal tab
You can edit any tab online and save it as your Personal.

You can edit, replace or remove any tab part or add personal notes – all changes will be seen only by you.

Personal tabs can be accessed anytime from any device, even offline.
Learn more »
Give kudos to tab author, rate the tab!
1 2 3 4 5
comments
print report bad tab
guest
Wanna post a correction for this tab? Suggest correction