Oops, an error
Loading. Please wait.

Ghosts Of Grace Tab

version 1
version 1

Whole song

Interactive

828 views 1 this week
no commentswrite comment
1 2 3 4 5
3 more votes to show rating
add to favorites
launch autoscroll
font size
0
reset
how to read this tab
guitar tuner
Autoscroll
slow
fast
+/-
esc
set tempo
stop
Help us to improve Ultimate-Guitar.com Take our survey!
×
Author
Difficulty
Tuning
novice
D A D G B E
-------------------------------------------------------------------------------
                             Ghosts of Grace - Nachtmystium
-------------------------------------------------------------------------------
Tabbed by: Michael Mather
Email: Contact.mather@gmail.com
Note: This song goes back and forth constantly between strings and chords, so I do not 
tab the song exactly how it is. Listen to the song while learning, to hear how many time 
you do each little note in a manner of timing as well.

Tuning: Drop D

Intro AND Verse! ~~\READ NOTE/~~
e|-----------------------------------------------------------------------------|
B|-13-13---------13-13---------15-15--------15-15------------------------------|
G|---------14-14---------14-14---------14-14--------14-14----------------------|
D|-----------------------------------------------------------------------------|
A|-----------------------------------------------------------------------------|
D|-----------------------------------------------------------------------------|


e|-----------------------------------------------------------------------------|
B|---------10-10--------10-10---------10-10--------10-10-----------------------|
G|-12-12--------12-12---------10-10--------10-10-------------------------------|
D|-----------------------------------------------------------------------------|
A|-----------------------------------------------------------------------------|
D|-----------------------------------------------------------------------------|

e|-----------------------------------------------------------------------------|
B|------10-10----10-10---------------------------------------------------------|
G|-9-9--------9-9--------------------------------------------------------------|
D|-----------------------------------------------------------------------------|
A|-----------------------------------------------------------------------------|
D|-----------------------------------------------------------------------------|

Chorus
e|-----------------------------------------------------------------------------|
B|-----------------------------------------------------------------------------|
G|-----------------------------------------------------------------------------|
D|-----------------------------------------------------------------------------|
A|-0~---5~--3~-----------------------------------------------------------------|
D|-0~---5~--3~-----------------------------------------------------------------|

End Note: Simple, Amazing, Fun, but Repetetive indeed. Do not get confused with the synth.


************************************

| /   slide up
| \   slide down
| h   hammer-on
| p   pull-off
| ~   vibrato
| +   harmonic
| x   Mute note
| b   Bend
| pb  Pre-bend
| br  Bend release
| pbr Pre-bend release
| brb Bend release bend

************************************
Suggest correction
Give kudos to tab author, rate the tab!
1 2 3 4 5
comments
print report bad tab
guest
You may want to rate the tab now too:
select rating
Wanna post a correction for this tab? Suggest correction