Oops, an error
Loading. Please wait.

Always Love chords

version 4
version 4

Whole song

Interactive

123,677 views 33 this week
6 commentsread comments
1 2 3 4 5
x 35
add to favorites
×
Save as Personal and add changes to this tab that will be seen only by you. Learn more ›
×
You can save this tab as Personal to edit and correct it or add notes. All changes will be seen only by you. Learn more »
launch autoscroll
font size
0
reset
transpose
0
reset
display chords
guitar tuner
edit
Autoscroll
slow
fast
+/-
esc
set tempo
stop
Strumming
There is no strumming pattern for this song yet. and get +5 IQ
Capo 2nd fret


[Intro]

e|--------3-------------3-------------0-------------0--------|
B|----1-----1-------1-----1-------0-----0-------1-----1---1--|
G|------2-----2-0-----0-----0-------0-----0-2-----2-----2----|
D|--3-------------------------0------------------------------|
A|----------------3---------------------------0--------------|
E|------------------------------0----------------------------|


[Verse 1]
(intro notes)

To make amount enough 
Your life is just a choice 
But I never learned enough 
To listen to the voice that said 

Play only bass :


[Chorus]

F      C
Always Love 
G                 F   
Hate will get you every time 
F      C
Always Love 
G                   F 
Don't wait 'til the finish line 

F C Em Am  


[Verse 2]

F                 C
Slow demands come rough 
Em                   Am
Squeeze the air and keep the rest up 
F                   C
Helps to write it down 
Em          Am
Even if you then cross it out 


Play only bass :


[Chorus]

F      C
Always Love 
G                 F   
Hate will get you every time 
F      C
Always Love 
G                   F 
Don't wait 'til the finish line


[Verse 3]

F              C
Self directed lives 
  Em                 Am
I want to know what it'd be like to 
F             C
Aim so high above 
Em              Am
Every card that has been dealt to you 


[Chorus]

F      C
Always Love 
G                 F
Hate will get you every time 
F      C
Always Love 
G                 
Hate will get you 


[Bridge]

F                       
I've been held back by something 
  C                    Dm
Yeah, you said to me quietly 
       F   
on the stairs. 

I've been held back by something 
  C                  Dm
Yeah, you said to me quietly 
       F
on the stairs. 

You said 
G    F       C
   Hey you good ones 
G    F       C
   Hey you good ones 


The following riff seems like intro, with few differences :

e|----------3---------------3---------------0---------------0--------|
B|------1-----1---1-----1-----1---1-----0-----0---0-----1-----1---1--|
G|----2---2-----2-----0---0-----0-----0---0-----0-----2---2-----2----|
D|--3----------------------------------------------------------------|
A|------------------3-------------------------------0----------------|
E|----------------------------------0--------------------------------|

(riff notes)

To make amount enough 
Your life is just a choice 
But I never land enough 
To listen to my voice when it said 


[Chorus]

F      C
Always Love 
G                 F
Hate will get you every time 
F      C
Always Love 
G                 
Hate will get you 


[Bridge]

F                       
I've been held back by something 
  C                    Dm
Yeah, you said to me quietly 
       F   
on the stairs. 

I've been held back by something 
  C                  Dm
Yeah, you said to me quietly 
       F
on the stairs. 

You said 
G    F       C
   Hey you good ones (3 fois)
G   F   C
Ohh ohh ohh

            
            
Suggest correction
Creating personal tab
Creating personal tab
You can edit any tab online and save it as your Personal.

You can edit, replace or remove any tab part or add personal notes – all changes will be seen only by you.

Personal tabs can be accessed anytime from any device, even offline.
Learn more »
comments
print report bad tab
6 comments total. Showing first comments.
0 reply
Inaudiblemelodi 30 Dec 28, 2006 07:48 PM

Sounds Great! Good Job!

+7 reply
-andi- 31 Jan 15, 2007 03:28 PM

Intro :

|--------0-------------0-------------0-------------0--------|
|----1-----1-------1-----1-------0-----0-------1-----1---1--|
|------2-----2-0-----0-----0-------0-----0-2-----2-----2----|
|--3-------------------------0------------------------------|
|----------------3---------------------------0--------------|
|------------------------------0----------------------------|

0 reply
Clifton 280 May 23, 2007 07:38 PM

most definetely agree with -andi-

guest
You may want to rate the tab now too:
select rating
Wanna post a correction for this tab? Suggest correction