Oops, an error
Loading. Please wait.

Friend Hospital tab

version 1
version 1

Whole song

Interactive

1,571 views 9 this week
2 commentsread comments
1 2 3 4 5
x 4
add to favorites
×
Save as Personal and add changes to this tab that will be seen only by you. Learn more ›
×
You can save this tab as Personal to edit and correct it or add notes. All changes will be seen only by you. Learn more »
launch autoscroll
font size
0
reset
how to read this tab
guitar tuner
edit
Autoscroll
slow
fast
+/-
esc
set tempo
stop
Capo 1
All tabs relative to Capo

Verses:
e|-------------------------0000--0--0--0--0----------------------|
B|-------------------------0000--0--0--0--0----------------------|
G|-------------------------0000--0--0--0--0----------------------|
D|10-10-10-9-7-------------xxxx--x--x--x--x----------------------|
A|-0--0--0-0-0-10-9-10--9--9999-10-10-10-10----------------------| Repeat as necessary throughout verses
E|--------------0-0--0--0--7777--8--8--8--8----------------------|

Chorus:
C/G                       G
So much better that we're not together
      G          Am
Cause I will not lose you
                C/G
Or be the blues to you
                G
Friend Hospital
     Am
Wild Sadness
 C/G
New Weakness

Solo:
e|-----------------------------------------------5---------------|
B|-0--0--0--0--0--0--0--0--0-------------3-3-3----5--------------|
G|-3b-3b-3b-3b-3b-3b-3b-3b-3b--2p0-0-2/4-------4-----------------|
D|--------------------------------2------------------------------|
A|---------------------------------------------------------------|
E|---------------------------------------------------------------|

e|---------------------------------------------------------------|
B|-0--0--0--0--0--0--0--0--0-------------3--3--3--3--3--3--5--5--|
G|-3b-3b-3b-3b-3b-3b-3b-3b-3b-2p0--0-2/4-5b-5b-5b-5b-5b-5b-7b-7b-|
D|--------------------------------2------------------------------|
A|---------------------------------------------------------------|
E|---------------------------------------------------------------|

e|--------------------7/5------10-10-7-----15-14-15--------------|
B|-5--5--8-7-8------------8-7---------10-8----------15-17---15b--|
G|-7b-7b--------7-9---------------------------------------16---16|
D|------------------9--------------------------------------------|
A|---------------------------------------------------------------|
E|---------------------------------------------------------------|

e|---------------------------------------------------------------|
B|-15-15-17h20-18-17-17-17-17-17---------------------------------|
G|----------------19b19b19b19b19b--------------------------------|
D|---------------------------------------------------------------|
A|---------------------------------------------------------------|
E|---------------------------------------------------------------|


            
            
Suggest correction
Creating personal tab
Creating personal tab
You can edit any tab online and save it as your Personal.

You can edit, replace or remove any tab part or add personal notes – all changes will be seen only by you.

Personal tabs can be accessed anytime from any device, even offline.
Learn more »
comments
print report bad tab
2 comments total.
0 reply
redhotsexmagic 10 May 08, 2016 04:07 PM

awesome job! This song is so damn good :)

0 reply
filipedarosa 53 Jun 03, 2016 12:56 PM

Intro and 1st Verse
e|----------------------------------0000--0--0--0--0----------------------|
B|----------------------------------0000--0--0--0--0----------------------|
G|----------------------------------0000--0--0--0--0----------------------|
D|10-10-10-9-7----------------------xxxx--x--x--x--x----------------------|
A|-0--0--0-0-0-10-10-10--9-13-13----9999-10-10-10-10----------------------|
E|--------------0--0--0--0--0--0----7777--8--8--8--8----------------------|

Verse 2:

Am* G/C* G Am
Awkward limo, fantastic cemetery
G/C G
Reading from a list of your greatest hits
Am
You're dropping them all the time
G/C
It's like landing on my favorite planet
G* Am
When you're crackling through the line
G/C
So glad you called
Am
Sharp advice saves my life

guest
You may want to rate the tab now too:
select rating
Wanna post a correction for this tab? Suggest correction