Oops, an error
Loading. Please wait.

High Speed Soul Bass Tab

1,211 views 3 this week
1 commentread comment
1 2 3 4 5
please rate
add to favorites
launch autoscroll
font size
0
reset
guitar tuner
Autoscroll
slow
fast
+/-
esc
set tempo
stop
Help us to improve Ultimate-Guitar.com Take our survey!
×
Contributor
Difficulty
novice
INTRO: (8 measures before bass comes in)
G|----------------|----------------|----------------|----------------|
D|----------------|----------------|----------------|----------------|
A|----------------|----------------|----------------|----------------|
E|----------------|----------------|----------------|----------------|

G|----------------|----------------|----------------|----------------|
D|----------------|----------------|----------------|----------------|
A|----------------|----------------|----------------|----------------|
E|----------------|----------------|----------------|----------------|
Bass enters
G|--------------------|--------------------|------------------------|------------------------|
D|--------------------|--------------------|------------------------|------------------------|
A|--------------------|--------------------|10-10-10-10-10-10-10-10-|10-10-10-10-10-10-10-10-|
E|8-10-10-8-10-10-8-8-|8-10-10-8-10-10-8-8-|------------------------|------------------------|

G|--------------------|--------------------|------------------------|------------------------|
D|--------------------|--------------------|------------------------|------------------------|
A|--------------------|--------------------|10-10-10-10-10-10-10-10-|10-10-10-10-10-10-10-10-|
E|8-10-10-8-10-10-8-8-|8-10-10-8-10-10-8-8-|------------------------|------------------------|

VERSE1:
G|--------------------|--------------------|------------------------|------------------------|
D|--------------------|--------------------|------------------------|------------------------|
A|--------------------|--------------------|10-10-10-10-10-10-10-10-|10-10-10-10-10-10-10-10-|
E|8-10-10-8-10-10-8-8-|8-10-10-8-10-10-8-8-|------------------------|------------------------|

G|--------------------|--------------------|------------------------|------------------------|
D|--------------------|--------------------|------------------------|------------------------|
A|--------------------|--------------------|10-10-10-10-10-10-10-10-|10-10-10-10-10-10-10-10-|
E|8-10-10-8-10-10-8-8-|8-10-10-8-10-10-8-8-|------------------------|------------------------|

G|--------------------|--------------------|------------------------|------------------------|
D|--------------------|--------------------|------------------------|------------------------|
A|--------------------|--------------------|10-10-10-10-10-10-10-10-|10-10-10-10-10-10-10-10-|
E|8-10-10-8-10-10-8-8-|8-10-10-8-10-10-8-8-|------------------------|------------------------|

G|--------------------|--------------------|------------------------|----------------|
D|--------------------|--------------------|------------------------|----------------|
A|--------------------|--------------------|10-10-10-10-10-10-10-10-|7-7-7-7-7-7-7-7-|
E|8-10-10-8-10-10-8-8-|8-10-10-8-10-10-8-8-|------------------------|----------------|

G|----------------|------------------------|------------------------|
D|----------------|------------------------|------------------------|
A|8-8-8-8-8-8-8-8-|10-10-10-10-10-10-10-10-|10-10-10-10-10-10-10-10-|
E|----------------|------------------------|------------------------|

CHORUS1:
G|----------------|----------------|------------------------|------------------------|
D|----------------|----------------|------------------------|------------------------|
A|----------------|----------------|------------------------|------------------------|
E|8-8-8-8-8-8-8-8-|8-8-8-8-8-8-8-8-|10-10-10-10-10-10-10-10-|10-10-10-10-10-10-10-10-|

G|----------------|----------------|----------------|----------------|
D|----------------|----------------|----------------|----------------|
A|7-7-7-7-7-7-7-7-|7-7-7-7-7-7-7-7-|8-8-8-8-8-8-8-8-|8-8-8-8-8-8-8-8-| (Repeat)
E|----------------|----------------|----------------|----------------|

INTERLUDE:  (4 mesaures no bass)
G|----------------|----------------|----------------|----------------|
D|----------------|----------------|----------------|----------------|
A|----------------|----------------|----------------|----------------|
E|----------------|----------------|----------------|----------------|
Bass enters
G|--------------------|--------------------|------------------------|------------------------|
D|--------------------|--------------------|------------------------|------------------------|
A|--------------------|--------------------|10-10-10-10-10-10-10-10-|10-10-10-10-10-10-10-10-|
E|8-10-10-8-10-10-8-8-|8-10-10-8-10-10-8-8-|------------------------|------------------------|

G|--------------------|--------------------|------------------------|------------------------|
D|--------------------|--------------------|------------------------|------------------------|
A|--------------------|--------------------|10-10-10-10-10-10-10-10-|10-10-10-10-10-10-10-10-|
E|8-10-10-8-10-10-8-8-|8-10-10-8-10-10-8-8-|------------------------|------------------------|

VERSE2:  Repeat Verse1

CHORUS2:  Repeat Chorus1 except on the last line play this: (last measures leads into the bridge)
G|----------------|----------------|----------------|----------------|
D|----------------|----------------|----------------|7-7-7-7-7-7-7-7-|
A|7-7-7-7-7-7-7-7-|7-7-7-7-7-7-7-7-|8-8-8-8-8-8-8-8-|----------------| 
E|----------------|----------------|----------------|----------------|

BRIDGE: (whole notes)
G|----------------|----------------|----------------|----------------|
D|7(hold)---------|----------------|5(hold)---------|----------------|
A|----------------|----------------|----------------|----------------|
E|----------------|----------------|----------------|----------------|

G|----------------|----------------|----------------|----------------|
D|7(hold)---------|----------------|----------------|----------------|
A|----------------|----------------|5(hold)---------|----------------|
E|----------------|----------------|----------------|----------------|

G|----------------|----------------|----------------|----------------|
D|7(hold)---------|----------------|5(hold)---------|----------------|
A|----------------|----------------|----------------|----------------|
E|----------------|----------------|----------------|----------------|

G|----------------|----------------|----------------|----------------|
D|7(hold)---------|----------------|----------------|----------------|
A|----------------|----------------|5(hold)---------|----------------|
E|----------------|----------------|----------------|----------------|

BASS SOLO:
G|----------------|----------------|----------------|----------------|
D|----------------|----------------|----------------|----------------|
A|----------------|----------------|3-5-5-3-5---3-5-|--3-5-5-5-5-5-5-|
E|3-5-5-3-5---3-5-|--3-5-5-5-5-5-5-|----------------|----------------|

G|----------------|----------------|----------------|----------------|
D|----------------|----------------|----------------|----------------|
A|----------------|----------------|3-5-5-3-5---3-5-|--3-5-5-5-5-5-5-|
E|3-5-5-3-5---3-5-|--3-5-5-5-5-5-5-|----------------|----------------|

G|----------------|----------------|--------------7-|--5-------------|
D|----------------|----------------|----------------|----7-5---------|
A|----------------|----------------|3-5-5-3-5---3---|--------7-5-----|
E|3-5-5-3-5---3-5-|--3-5-5-3-3-3-3-|----------------|------------7-5-|

G|----------------|----------------|----------------|----------------|
D|----------------|----------------|----------------|----------------|
A|----------------|----------------|3-5-5-3-5---3-5-|--3-5-5-5-5-5-5-|
E|3-5-5-3-5---3-5-|--3-5-5-5-5-5-5-|----------------|----------------|

G|----------------|----------------|5-7-7-5-7---5-7-|--5-------------|
D|5-7-7-5-7---5-7-|--5-7-7-7-7-7-7-|----------------|----7-5---------|
A|----------------|----------------|----------------|--------7-5-----|
E|----------------|----------------|----------------|------------7-5-|

G|----------------|----------------|5-7-7-5-7---5-7-|--5-------------|
D|5-7-7-5-7---5-7-|--5-7-7-7-7-7-7-|----------------|----7-5---------|
A|----------------|----------------|----------------|--------7-5-----|
E|----------------|----------------|----------------|------------7-5-|

G|----------------|----------------|5-7-7-5-7---5-7-|--5-7-7-7-7-7-7-|
D|5-7-7-5-7---5-7-|--5-7-7-7-7-7-7-|----------------|----------------|
A|----------------|----------------|----------------|----------------|
E|----------------|----------------|----------------|----------------|

G|----------------|----------------|5-7-7-5-7---5-7-|--5-------------|
D|5-7-7-5-7---5-7-|--5-7-7-7-7-7-7-|----------------|----7-5---------|
A|----------------|----------------|----------------|--------7-5-----|
E|----------------|----------------|----------------|------------7-5-|

OUTRO: (4 measures no bass)
G|----------------|----------------|----------------|----------------|
D|----------------|----------------|----------------|----------------|
A|----------------|----------------|----------------|----------------|
E|----------------|----------------|----------------|----------------|
Bass enters and plays:
G|------------------|------------------|------------------|------------------|
D|------------------|------------------|------------------|------------------|
A|------------------|------------------|------------------|------------------|
E|3-5-5-3-/5-7-7-/5-|3-5-5-3-/5-7-7-/5-|3-5-5-3-/5-7-7-/5-|3-5-5-3-/5-7-7-/5-|
Suggest correction new What's this?
You can suggest a correction to this tab. Community and Mods will review your correction and vote to approve or reject it.
comments
We did not receive enough feedback on this tab! Please rate:
print report bad tab
1 2 3 4 5
1 comment total.
0 reply
Steakfrites16 146 wrote on June 16 2010, 04:45 pm

2nd measure of 3rd line of solo should be:

G|----------------|
D|----------------|
A|----------------|
E|--3-5-5-5-5-5-5-|

guest
You may want to rate the tab now too:
select rating
Please do not post tabs as comments. Select "correction" instead!