Oops, an error
Loading. Please wait.

Inside Of Love Tab

version 2
version 2

Whole song

9,128 views 6 this week
6 commentsread comments
1 2 3 4 5
1 last vote to show rating
add to favorites
launch autoscroll
font size
0
reset
how to read this tab
guitar tuner
×
Best way to learn
"Inside Of Love"
Autoscroll
slow
fast
+/-
esc
set tempo
stop
Author
Capo
  follow
2nd fret
inside of love by nada surf
capo 2nd fret

G -320033
d?-xx1232

intro
e|----------(0-0)-
b|----------(0-0)-
g|-5-4-------5-4---------------------|
d|-5-5--x8---5-5--x8-----------------|
a|-x-x-------3-3---------------------|
E|-3-3-------------------------------| x2

verse(0:21)
e|----------(0-0)-
b|----------(0-0)-
g|-5-4-------5-4---------------------|
d|-5-5--x8---5-5--x8-----------------|
a|-x-x-------3-3---------------------|
E|-3-3-------------------------------|\
x2
e|----------(0-0)-
b|----------(0-0)-
g|-5-4-------5-4---------------------|
d|-5-5--x8---2-2--x8-----------------|
a|-x-x-------x-x---------------------|
E|-3-3-------0-0---------------------|

watching terrible tv, it kills all thought
getting spacier than, an astronaut
making out with people, i hardly know or like
i can?t believe what i do,late at night

chorus(1:04)
G D D?
I want know what it's like on the inside of love
Em Am C
I'm standing at the gates, I see the beauty above

(1:26)
e|----------(0-0)-
b|----------(0-0)-
g|-5-4-------5-4---------------------|
d|-5-5--x8---5-5--x8-----------------|
a|-x-x-------3-3---------------------|
E|-3-3-------------------------------|

verse2
e|----------(0-0)-
b|----------(0-0)-
g|-5-4-------5-4---------------------|
d|-5-5--x8---5-5--x8-----------------|
a|-x-x-------3-3---------------------|
E|-3-3-------------------------------|
only when we get to see, the aerial view, will the patterns

e|----------(0-0)-
b|----------(0-0)-
g|-5-4-------5-4---------------------|
d|-5-5--x8---2-2--x8-----------------|
a|-x-x-------x-x---------------------|
E|-3-3-------0-0---------------------|
show, we'll know what to do

e|----------------------------------|
b|-----------8-8-8-7-7-7-7-7--------|
g|-5-4-------x-x-x-x-x-x-x-x--------|
d|-5-5--x8---7-7-7-7-7-7-7-7---x2---|
a|-x-x-------5-5-5-5-5-5-5-5--------|
E|-3-3------------------------------|
i know the last page so well, i can?t see the first, so i just don't

e|-------------------------------------------|
b|10-10-10-8-8-8-8-8-10-10-10-10-10-10-10-10-|
g|-x--x--x-x-x-x-x-x--x--x--x--x--x--x--x--x-|
d|-9--9--9-9-9-9-9-9-10-10-10-10-10-10-10-10-|
a|-7--7--7-7-7-7-7-7--8--8--8--8--8--8--8--8-|
E|-------------------------------------------|
start, it's getting

e|---------------------------------|
b|-5-5-5-5-5-5-5-5-5-5-5-5-5-5-5-5-|
g|-x-x-x-x-x-x-x-x-x-x-x-x-x-x-x-x-|
d|-5-5-5-5-5-5-5-5-5-5-5-5-5-5-5-5-|
a|-3-3-3-3-3-3-3-3-3-3-3-3-3-3-3-3-|
E|---------------------------------|
worse.

chorus(2:20)
G D D?
I want know what it's like on the inside of love
Em Am C
I'm standing at the gates, I see the beauty above
G D
I want know what it's like on the inside of love
Am Em C
Can't find my way in, I try again and

(3:00)
e|-0-0-0-0-0---3-7-3-2-|
b|-0-0-5-3-0---0-0-0-3-|
g|-4-5-5-5-5---0-0-0-0-|
d|---------------------|
a|---------------------|
E|---------------------|x2
again

e|-2---2---0---0-|
b|-1---0---1---1-|
g|-0---0---0---0-|
d|---------2---2-|
a|---------3---3-|
E|-------------3-|

G D
I'm on the outside of love, always under or above
Am Em C Am
I can't find my way in, I try again and again
G D
I'm on the outside of love, always under or above
Am Em C Am
Must be a different view, to be a me with a you

G D D?
I want know what it's like on the inside of love
Em Am C
I'm standing at the gates, I see the beauty above
G D
I want know what it's like on the inside of love
Am Em C
Of course I'll be alright, I just had a bad

e|-----------------------------------------------------------------3-|
b|-----------------------------------------------------------------3-|
g|-----------------------------------------------------------------0-|
d|-7-9-7-9-7-9-7-9-7-9-7-9-7-9-7-9-4-5-4-5-4-5-4-5-4-5-4-5-4-5-4-5-0-|
a|-x-x-x-x-x-x-x-x-x-x-x-x-x-x-x-x-0-0-0-0-0-0-0-0-0-0-0-0-0-0-0-0-2-|
E|-8-8-8-8-8-8-8-8-8-8-8-8-8-8-8-8---------------------------------3-|
night I had a bad night.
Suggest correction
Give kudos to tab author, rate the tab!
1 2 3 4 5
comments
print report bad tab
6 comments total. Showing first comments.
0 reply
pourn 93 Oct 08, 2004 08:00 PM

hmm, not supposed to look like that.

0 reply
pourn 93 Oct 12, 2004 08:00 PM

this is what it's supposed to look like:

inside of love by nada surf
capo 2nd fret

G -320033
d?-xx1232

intro
e|----------(0-0)-

0 reply
pourn 93 Oct 12, 2004 08:00 PM

intro
e|----------(0-0)-

guest
You may want to rate the tab now too:
select rating
Wanna post a correction for this tab? Suggest correction