Oops, an error
Loading. Please wait.

Meow Meow Lullaby tab

version 1
version 1

Whole song

Interactive

5,184 views 21 this week
2 commentsread comments
1 2 3 4 5
x 7
add to favorites
×
Save as Personal and add changes to this tab that will be seen only by you. Learn more ›
×
You can save this tab as Personal to edit and correct it or add notes. All changes will be seen only by you. Learn more »
launch autoscroll
font size
0
reset
how to read this tab
guitar tuner
edit
Autoscroll
slow
fast
+/-
esc
set tempo
stop
Difficulty
intermediate
Capo on second fret (optional, just sounds a tad bit lower w/o capo)
C major
Standard tuning
I am just a kitten. Hardly Fit my mittens...
E|---------------------------|
B|-1-0-----------1-0-----3---|
G|-------0-0-----------0---3-|    x2
D|-----2-----2-------2-------|
A|-3-------------3-----------|
E|---------------------------|

One day, I'll be, a great big kitty cat...
E|---------------------------|
B|-5----7-----8---7-5-3------|
G|---------------------------|
D|---------------------------|    x2
A|-3-00-5-00--7---5-3-2------|
D|---------------------------|

repeat whole thing until end, which is just the first part repeating

Lyrics (sounds just like guitar)
meow part

I am just a kitten, hardly fit my mittens
Much too small I figure, one day I'll be bigger
One day, I'll be, a great big kitty cat use
Open, windows to go from flat to flat

Meow part

I am just a kitten, hardly fit my mittens
Much too small I figure, one day I'll be bigger
One day, I'll be, all grown up and strong but
Till then, I'll just purr and sing along, and go

meow part

            
            
Suggest correction
Creating personal tab
Creating personal tab
You can edit any tab online and save it as your Personal.

You can edit, replace or remove any tab part or add personal notes – all changes will be seen only by you.

Personal tabs can be accessed anytime from any device, even offline.
Learn more »
comments
print report bad tab
2 comments total.
0 reply
im_da_cal_man 10 Jun 25, 2007 07:25 PM

thats weired, it didnt say that i posted this tab, it says unregistered

0 reply
im_da_cal_man 10 Jun 30, 2007 09:18 PM

I AM SO SORRY I MADE A MISTAKE!!!!! at this part
E|---------------------------|
B|-5----7-----8---7-5-3------|
G|---------------------------|
D|---------------------------| x2
A|-3-00-5-00--7---5-3-2------|
E|---------------------------|

At the end there should be just 1 note like this

E|---------------------------|
B|-5----7-----8---7-5-3------|
G|---------------------------|
D|---------------------------| x2
A|-3-00-5-00--7---5-3-2------|
E|-----------------------3---|

that 3 on the E string. oh and i accidentally put a D instead of an E.
so please forgive me for that

guest
Wanna post a correction for this tab? Suggest correction