Oops, an error
Loading. Please wait.

Popular Tab

version 3
version 3

Whole song

Interactive

292 views 3 this week
no commentswrite comment
1 2 3 4 5
3 more votes to show rating
add to favorites
×
Save as Personal and add changes to this tab that will be seen only by you. Learn more ›
×
You can save this tab as Personal to edit and correct it or add notes. All changes will be seen only by you. Learn more »
save as personal
new!
launch autoscroll
font size
0
reset
how to read this tab
guitar tuner
Autoscroll
slow
fast
+/-
esc
set tempo
stop
Difficulty
novice
Nada Surf
Popular
High/Low

Standard Tuning

INTRO

|----------------|----------------|----------------|----------------|
|----0-------0---|----0-------0---|----0-------0---|----0-------0---|
|----4-------4---|----4-------4---|----4-------4---|----4-------4---|
|----------2-----|--2-------------|2-2-----2-2-----|2-2-------------|
|3-3-----3-3---0-|2-2-----2-2-----|3-3-----3-3---0-|2-2-----2-2-----|
|----------------|--------0-0-----|----------------|--------0-0-----|

|----------------|----------------|----------------|----------------|
|----0-------0---|----0-------0---|----0-------0---|----------------|
|----4-------4---|----4-------4---|----4-------4---|----2-------2---|
|2-2-----2-2-----|2-2-------------|2-2-----2-2-----|--4---4---4---4-|
|3-3-----3-3---0-|2-2-----2-2-----|3-3-----3-3---0-|3-------3-------|
|----------------|--------0-0-----|----------------|----------------|

|----------------|
|----------------|
|----4-------4---|
|--4---4---4---4-|
|2-------2-------|
|----------------|

VERSE

|----------------|----------------|----------------|----------------|
|----0-------0---|----0-------0---|----0-------0---|----0-------0---|
|----4-------4---|----4-------4---|----4-------4---|----4-------4---|
|----------2-----|--2-------------|2-2-----2-2-----|2-2-------------|
|3-3-----3-3---0-|2-2-----2-2-----|3-3-----3-3---0-|2-2-----2-2-----|
|----------------|--------0-0-----|----------------|--------0-0-----|

|----------------|----------------|----------------|----------------|
|----0-------0---|----0-------0---|----------------|----------------|
|----4-------4---|----4-------4---|----2-------2---|----4-------4---|
|2-2-----2-2-----|2-2-------------|--4---4---4---4-|--4---4---4---4-|
|3-3-----3-3---0-|2-2-----2-2-----|3-------3-------|2-------2-------|
|----------------|--------0-0-----|----------------|----------------|

CHORUS

|----------------|----------------|----------------|----------------|
|----------------|----------------|----------------|----------------|
|6-6-6-6-6-6-6-6-|4-4-4-4-4-4-4-4-|6-6-6-6-6-6-6-6-|4-4-4-4-4-4-4-4-|
|7-7-7-7-7-7-7-7-|5-5-5-5-5-5-5-5-|7-7-7-7-7-7-7-7-|5-5-5-5-5-5-5-5-|
|7-7-7-7-7-7-7-7-|5-5-5-5-5-5-5-5-|7-7-7-7-7-7-7-7-|5-5-5-5-5-5-5-5-|
|5-5-5-5-5-5-5-5-|3-3-3-3-3-3-3-3-|5-5-5-5-5-5-5-5-|3-3-3-3-3-3-3-3-|

|----------------|----------------|----------------|----------------|
|----------------|----------------|----------------|----------------|
|6-6-6-6-6-6-6-6-|4-4-4-4-4-4-4-4-|----------------|--5-5===========|
|7-7-7-7-7-7-7-7-|5-5-5-5-5-5-5-5-|5\3-3===========|3-5-5===========|
|7-7-7-7-7-7-7-7-|5-5-5-5-5-5-5-5-|5\3-3===========|3-3-3===========|
|5-5-5-5-5-5-5-5-|3-3-3-3-3-3-3-3-|3\1-1===========|1---------------|
                                  |
                                  |----------------|----------------|
                                  |----------------|----------------|
                                  |161414==========|141212==========|
        OVERDUBBED GUITAR:        |-x-x-x----------|-x-x-x----------|
                                  |141212==========|121010==========|
                                  |----------------|----------------|


then it does another verse...another chorus...then this:

|----------------|----------------|----------------|----------------|
|----0-------0---|----0-------0---|----0-------0---|----0-------0---|
|----4-------4---|----4-------4---|----4-------4---|----4-------4---|
|----------2-----|--2-------------|2-2-----2-2-----|2-2-------------|
|3-3-----3-3---0-|2-2-----2-2-----|3-3-----3-3---0-|2-2-----2-2-----|
|----------------|--------0-0-----|----------------|--------0-0-----|

|----------------|----------------|----------------|----------------|
|----0-------0---|----0-------0---|----------------|----------------|
|----4-------4---|----4-------4---|----0-2---0-----|----0---4---2---|
|2-2-----2-2-----|2-2-------------|--4-----------4-|--4-------------|
|3-3-----3-3---0-|2-2-----2-2-----|3---------------|2---------------|
|----------------|--------0-0-----|----------------|----------------|
                                   (this is the parts that's diiferent)

now hit that distortion pedal

|----------------|----------------|----------------|----------------|
|----0-------0---|----0-------0---|----0-------0---|----0-------0---|
|----4-------4---|----4-------4---|----4-------4---|----4-------4---|
|----------2-----|--2-------------|2-2-----2-2-----|2-2-------------|
|3-3-----3-3---0-|2-2-----2-2-----|3-3-----3-3---0-|2-2-----2-2-----|
|----------------|--------0-0-----|----------------|--------0-0-----|

|----------------|----------------|----------------|----------------|
|----0-------0---|----0-------0---|----------------|----------------|
|----4-------4---|----4-------4---|2-2-2-2-2-2-2-2-|4-4-4-4-4-4-4-4-|
|2-2-----2-2-----|2-2-------------|4-4-4-4-4-4-4-4-|4-4-4-4-4-4-4-4-|
|3-3-----3-3---0-|2-2-----2-2-----|3-3-3-3-3-3-3-3-|2-2-2-2-2-2-2-2-|
|----------------|--------0-0-----|----------------|----------------|


Now play the chorus twice and finish the song on "A" (the first chord
of the CHORUS).

Tab ripped from angelfire.com/nm2/nadatabs
Suggest correction
Give kudos to tab author, rate the tab!
1 2 3 4 5
comments
print report bad tab
guest
Wanna post a correction for this tab? Suggest correction