Oops, an error
Loading. Please wait.

Whatever Lovers Say Tab

1,286 views 1 this week
no commentswrite comment
1 2 3 4 5
please rate
add to favorites
launch autoscroll
font size
0
reset
how to read this tab
guitar tuner
Autoscroll
slow
fast
+/-
esc
set tempo
stop
Help us to improve Ultimate-Guitar.com Take our survey!
×
Author
----------------------------------------------------------------------------
                             Whatever lovers say - Nadeah
----------------------------------------------------------------------------
Tabbed by: Lukie01
Email: lukie01@hotmail.fr

Tuning: standard

This is my first tab, I havent seen any Nadeah tab anywhere except for Odile, so I 
decided to do it myself.
It is not perfect but I think it sounds pretty cool. Hope you ll like it!

Verse 1

   I come to see you in the market
e|-3------------------------4-----------------|
B|-4------------------------4-----------------|
G|-5------------------------5-----------------|
D|-5------------------------6-----------------|
A|-3------------------------6-----------------|
E|-3------------------------4-----------------|

   Where the buyers buy and sell their wares
e|-3-----------------------------------4-----------------|
B|-4-----------------------------------4-----------------|
G|-5-----------------------------------5-----------------|
D|-5-----------------------------------6-----------------|
A|-3-----------------------------------6-----------------|
E|-3-----------------------------------4-----------------|

   I wanna reach into your apron
e|-3-----------------------4-----------------|
B|-4-----------------------4-----------------|
G|-5-----------------------5-----------------|
D|-5-----------------------6-----------------|
A|-3-----------------------6-----------------|
E|-3-----------------------4-----------------|

   Take your hand and save you from this fate
e|-3-------------------------------------3---------------|
B|-4-------------------------------------3---------------|
G|-5-------------------------------------4---------------|
D|-5-------------------------------------5---------------|
A|-3-------------------------------------5---------------|
E|-3-------------------------------------3---------------|


Verse 2

   Like to invite you to my lighthouse
e|-3---------------------4-----------------|
B|-4---------------------4-----------------|
G|-5---------------------5-----------------|
D|-5---------------------6-----------------|
A|-3---------------------6-----------------|
E|-3---------------------4-----------------|


   Show you boats and woo you like the sailors do
e|-3--------------------------------3-----------------|
B|-4--------------------------------3-----------------|
G|-5--------------------------------4-----------------|
D|-5--------------------------------5-----------------|
A|-3--------------------------------5-----------------|
E|-3--------------------------------3-----------------|


   But I can only see you in the market place
e|-3---------------------4-----------------|
B|-4---------------------4-----------------|
G|-5---------------------5-----------------|
D|-5---------------------6-----------------|
A|-3---------------------6-----------------|
E|-3---------------------4-----------------|


   With a little ring I ll probably never bring to you
e|-3--------------------------------------------3-----------------|
B|-4--------------------------------------------3-----------------|
G|-5--------------------------------------------4-----------------|
D|-5--------------------------------------------5-----------------|
A|-3--------------------------------------------5-----------------|
E|-3--------------------------------------------3-----------------|


CHORUS

   We d watch the early morning street cleaners cleaning streets 
e|-3----------------------------4-----------------|
B|-4----------------------------4-----------------|
G|-5----------------------------5-----------------|
D|-5----------------------------6-----------------|
A|-3----------------------------6-----------------|
E|-3----------------------------4-----------------|


   with eyes wide awake until the vampires hit their sheets and 
e|------6-------------------------6--------3--------------------|
B|------6-------------------------6--------3--------------------|
G|------7-------------------------7--------4--------------------|
D|------6-------------------------8--------5--------------------|
A|------8-------------------------8--------5--------------------|
E|------6-------------------------6--------3--------------------|

   we d find a way to turn the hours into weeks 
e|-3---------------------------4-----------------|
B|-4---------------------------4-----------------|
G|-5---------------------------5-----------------|
D|-5---------------------------6-----------------|
A|-3---------------------------6-----------------|
E|-3---------------------------4-----------------|

   and then we d say whatever lovers say
e|---------------6------------6------3--------------------|
B|---------------6------------6------3--------------------|
G|---------------7------------7------4--------------------|
D|---------------6------------8------5--------------------|
A|---------------8------------8------5--------------------|
E|---------------6------------6------3--------------------|



Verse 4

   Want to impress you with my palace
e|-3---------------------------4-----------------|
B|-4---------------------------4-----------------|
G|-5---------------------------5-----------------|
D|-5---------------------------6-----------------|
A|-3---------------------------6-----------------|
E|-3---------------------------4-----------------|

   When I make money I ll buy a little place for two
e|-3---------------------------------------------3---------------|
B|-4---------------------------------------------3---------------|
G|-5---------------------------------------------4---------------|
D|-5---------------------------------------------5---------------|
A|-3---------------------------------------------5---------------|
E|-3---------------------------------------------3---------------|

   But I  just rent a bedsit here in Paris
e|-3---------------------------------4-----------------|
B|-4---------------------------------4-----------------|
G|-5---------------------------------5-----------------|
D|-5---------------------------------6-----------------|
A|-3---------------------------------6-----------------|
E|-3---------------------------------4-----------------|

   Could it be good for a prince like you
e|-3----------------------------------3---------------|
B|-4----------------------------------3---------------|
G|-5----------------------------------4---------------|
D|-5----------------------------------5---------------|
A|-3----------------------------------5---------------|
E|-3----------------------------------3---------------|



CHORUS

   We d watch the early morning street cleaners cleaning streets 
e|-3----------------------------4-----------------|
B|-4----------------------------4-----------------|
G|-5----------------------------5-----------------|
D|-5----------------------------6-----------------|
A|-3----------------------------6-----------------|
E|-3----------------------------4-----------------|


   with eyes wide awake until the vampires hit their sheets and 
e|------6-------------------------6--------3--------------------|
B|------6-------------------------6--------3--------------------|
G|------7-------------------------7--------4--------------------|
D|------6-------------------------8--------5--------------------|
A|------8-------------------------8--------5--------------------|
E|------6-------------------------6--------3--------------------|

   we d find a way to turn the hours into weeks 
e|-3---------------------------4-----------------|
B|-4---------------------------4-----------------|
G|-5---------------------------5-----------------|
D|-5---------------------------6-----------------|
A|-3---------------------------6-----------------|
E|-3---------------------------4-----------------|

   and then we d say whatever lovers say
e|---------------6------------6------3--------------------|
B|---------------6------------6------3--------------------|
G|---------------7------------7------4--------------------|
D|---------------6------------8------5--------------------|
A|---------------8------------8------5--------------------|
E|---------------6------------6------3--------------------|



   Oh oh oh oh oh oh oh ohohohohoh
e|-3--------------4-----------------|
B|-4--------------4-----------------|
G|-5--------------5-----------------|
D|-5--------------6-----------------|
A|-3--------------6-----------------|
E|-3--------------4-----------------|


   Oh oh oh oh oh oh oh ohohohohoh
e|-3--------------3-----------------|
B|-4--------------3-----------------|
G|-5--------------4-----------------|
D|-5--------------5-----------------|
A|-3--------------5-----------------|
E|-3--------------3-----------------|


   oh oh oh oh oh oh oh ohohohohoh
e|-3--------------4-----------------|
B|-4--------------4-----------------|
G|-5--------------5-----------------|
D|-5--------------6-----------------|
A|-3--------------6-----------------|
E|-3--------------4-----------------|


   Oh oh oh oh oh oh oh oh
e|-3--------------3-----------------|
B|-4--------------3-----------------|
G|-5--------------4-----------------|
D|-5--------------5-----------------|
A|-3--------------5-----------------|
E|-3--------------3-----------------|



   We d live a longer life than candles that everybody buys
e|-4----------------------------2----------------------1------|
B|-4----------------------------2----------------------1------|
G|-5----------------------------3----------------------2------|
D|-6----------------------------4----------------------3------|
A|-6----------------------------4----------------------3------|
E|-4----------------------------2----------------------1------|


   At local discount stores
e|-1-------------------------|
B|-1-------------------------|
G|-2-------------------------|
D|-3-------------------------|
A|-3-------------------------|
E|-1-------------------------|

(really not sure about that part)



CHORUS

   We d watch the early morning street cleaners cleaning streets 
e|-3----------------------------4-----------------|
B|-4----------------------------4-----------------|
G|-5----------------------------5-----------------|
D|-5----------------------------6-----------------|
A|-3----------------------------6-----------------|
E|-3----------------------------4-----------------|


   with eyes wide awake until the vampires hit their sheets and 
e|------6-------------------------6--------3--------------------|
B|------6-------------------------6--------3--------------------|
G|------7-------------------------7--------4--------------------|
D|------6-------------------------8--------5--------------------|
A|------8-------------------------8--------5--------------------|
E|------6-------------------------6--------3--------------------|

   we d find a way to turn the hours into weeks 
e|-3---------------------------4-----------------|
B|-4---------------------------4-----------------|
G|-5---------------------------5-----------------|
D|-5---------------------------6-----------------|
A|-3---------------------------6-----------------|
E|-3---------------------------4-----------------|

   and then we d say whatever lovers say
e|---------------6------------6------3--------------------|
B|---------------6------------6------3--------------------|
G|---------------7------------7------4--------------------|
D|---------------6------------8------5--------------------|
A|---------------8------------8------5--------------------|
E|---------------6------------6------3--------------------|



   Oh oh oh oh oh oh oh ohohohohoh
e|-3--------------4-----------------|
B|-4--------------4-----------------|
G|-5--------------5-----------------|
D|-5--------------6-----------------|
A|-3--------------6-----------------|
E|-3--------------4-----------------|


   Oh oh oh oh oh oh oh ohohohohoh
e|-3--------------3-----------------|
B|-4--------------3-----------------|
G|-5--------------4-----------------|
D|-5--------------5-----------------|
A|-3--------------5-----------------|
E|-3--------------3-----------------|


   oh oh oh oh oh oh oh ohohohohoh
e|-3--------------4-----------------|
B|-4--------------4-----------------|
G|-5--------------5-----------------|
D|-5--------------6-----------------|
A|-3--------------6-----------------|
E|-3--------------4-----------------|


   Oh oh oh oh oh oh oh oh
e|-3--------------3-----------------|
B|-4--------------3-----------------|
G|-5--------------4-----------------|
D|-5--------------5-----------------|
A|-3--------------5-----------------|
E|-3--------------3-----------------|

Please do not hesitate to correct it if you think it is wrong.

Lucie
Suggest correction
Give kudos to tab author, rate the tab!
1 2 3 4 5
comments
print report bad tab
guest
You may want to rate the tab now too:
select rating
Wanna post a correction for this tab? Suggest correction