Oops, an error
Loading. Please wait.

Emilio tab

by Nadie
78 views 1 this week
no commentswrite comment
1 2 3 4 5
3 more votes to show rating
add to favorites
×
Save as Personal and add changes to this tab that will be seen only by you. Learn more ›
×
You can save this tab as Personal to edit and correct it or add notes. All changes will be seen only by you. Learn more »
launch autoscroll
font size
0
reset
how to read this tab
guitar tuner
edit
Autoscroll
slow
fast
+/-
esc
set tempo
stop
trascripcion por "ruffuz"
ruffuz6666@

desde q se salio el saxofonista ya NADIE NO ES EL MISMO.


NADIE---EIDAN
A  EMILIO   A
D  EMILIO   D
I  EMILIO   I
EIDAN---NADIE

Intro:
     G5           B+5         B5-A5 Em5
e|-------------------------------------|
B|-------------------------------------|
G|-------------------------------------|
D|-x-x-5--x-x-5--x-x-9--x-x-9--4-5-7-2-|
A|-x-x-5--x-x-5--x-x-9--x-x-9--4-5-7-2-|
E|-x-x-3--x-x-3--x-x-7--x-x-7--2-3-5-0-|


  Em         G5 A5  Em5        A5       Em5   A5     riff 1
e|-----------------------------------------------------|
B|-----------------------------------------------------|
G|-----------------------------------------------------|
D|-2-2-2-2-2--5-7--2-2-2-2-2---7-7-7-7-7-2-2-7-7-7-7-7-|
A|-2-2-2-2-2--5-7--2-2-2-2-2---7-7-7-7-7-2-2-7-7-7-7-7-|
E|-0-0-0-0-0--3-5--0-0-0-0-0---5-5-5-5-5-0-0-5-5-5-5-5-|
p.m.........       .........  ..........     .........
emilio dice     que su cabeza gira al cien    se va caer

INTERMEDIO
 2riff
e|---------|
B|---------|
G|---------|
D|-4-5-7-2-|
A|-4-5-7-2-|
E|-2-3-5-0-|
  riff 1

  Em         G5 A5  Em5        A5       Em5   A5     riff 1
e|-----------------------------------------------------|
B|-----------------------------------------------------|
G|-----------------------------------------------------|
D|-2-2-2-2-2--5-7--2-2-2-2-2---7-7-7-7-7-2-2-7-7-7-7-7-|
A|-2-2-2-2-2--5-7--2-2-2-2-2---7-7-7-7-7-2-2-7-7-7-7-7-|
E|-0-0-0-0-0--3-5--0-0-0-0-0---5-5-5-5-5-0-0-5-5-5-5-5-|
p.m.........       .........  ..........     .........
emilio dice    que ya no tiene con que beber  como va hacer

INTERMEDIO
Em5 G5 A5  D5            C5  riff 3
e|---------------------------------|
B|---------------------------------|
G|--------7-7-7-7-7-7-7--5-5-5-5-5-|
D|-2-5-7--7-7-7-7-7-7-7--5-5-5-5-5-|
A|-2-5-7--5-5-5-5-5-5-5--3-3-3-3-3-|
E|-0-3-5---------------------------|
      y hezque emilio tiene un problema con su hígado también

Intro:
     G5           B+5         B5-A5 Em5
e|-------------------------------------|
B|-------------------------------------|
G|-------------------------------------|
D|-x-x-5--x-x-5--x-x-9--x-x-9--4-5-7-2-|
A|-x-x-5--x-x-5--x-x-9--x-x-9--4-5-7-2-|
E|-x-x-3--x-x-3--x-x-7--x-x-7--2-3-5-0-|


  Em         G5 A5  Em5        A5       Em5   A5     riff 1
e|-----------------------------------------------------|
B|-----------------------------------------------------|
G|-----------------------------------------------------|
D|-2-2-2-2-2--5-7--2-2-2-2-2---7-7-7-7-7-2-2-7-7-7-7-7-|
A|-2-2-2-2-2--5-7--2-2-2-2-2---7-7-7-7-7-2-2-7-7-7-7-7-|
E|-0-0-0-0-0--3-5--0-0-0-0-0---5-5-5-5-5-0-0-5-5-5-5-5-|
p.m.........       .........  ..........     .........
Emilio liga todas las noches sin tener con que comer

2riff
e|---------|
B|---------|
G|---------|
D|-4-5-7-2-|
A|-4-5-7-2-|
E|-2-3-5-0-|


  Em         G5 A5  Em5        A5       Em5   A5     riff 1
e|-----------------------------------------------------|
B|-----------------------------------------------------|
G|-----------------------------------------------------|
D|-2-2-2-2-2--5-7--2-2-2-2-2---7-7-7-7-7-2-2-7-7-7-7-7-|
A|-2-2-2-2-2--5-7--2-2-2-2-2---7-7-7-7-7-2-2-7-7-7-7-7-|
E|-0-0-0-0-0--3-5--0-0-0-0-0---5-5-5-5-5-0-0-5-5-5-5-5-|
p.m.........       .........  ..........     .........
emilio debe    hasta los ojos y mucho más   no puede ser

INTERMEDIO
Em5 G5 A5  D5            C5  riff 3
e|---------------------------------------------------|
B|---------------------------------------------------|
G|--------7-7-7-7-7-7-7--5-5-5-5-5-------------------|
D|-2-5-7--7-7-7-7-7-7-7--5-5-5-5-5-2-2-2-2-5--5-7-7-7|
A|-2-5-7--5-5-5-5-5-5-5--3-3-3-3-3-2-2-2-2-5--5-7-7-7|
E|-0-3-5---------------------------0-0-0-0-3--3-5-5-5|
       y hezque emilio ya no tiene neuronas pa' pensar

    D5                   C5         Em5  riff 3
e|--------------------------------------------|
B|-------------------------------------p.m....|
G|--7--7--7--7--7--7-----5-5-5-5--------------|
D|--7--7--7--7--7--7-----5-5-5-5--2-2-2-2-2-2-|
A|--5--5--5--5--5--5-----3-3-3-3--2-2-2-2-2-2-|
E|--------------------------------0-0-0-0-0-0-|
                                  ............
   y hezque emilio   solo quiere,  solo quiere

CORO

           C5       B5          Em5  riff 3
    e|-------------------------------------------|
    B|-------------------------------------------|
    G|-5-5-5-5-5-5--4-4-4-4-4--------------------|
    D|-5-5-5-5-5-5--4-4-4-4-4--2-2-2-2-2-2-2-2-2-|
    A|-3-3-3-3-3-3--2-2-2-2-2--2-2-2-2-2-2-2-2-2-|
    E|-------------------------0-0-0-0-0-0-0-0-0-|
  beber quiere beber, hasta caer, hasta caer


           C5       B5          Em5  riff 3
    e|--------------------------------------------|
    B|--------------------------------------------|
    G|-0-0-5-5-5-5-4-4-4-4-4----------------------|
    D|-0-0-5-5-5-5-4-4-4-4-4--2-2-2-2-5-5-7-7-7-2-|
    A|-0-0-3-3-3-3-2-2-2-2-2--2-2-2-2-5-5-7-7-7-2-|
    E|------------------------0-0-0-0-3-3-5-5-5-0-|

 quiere beberrr, hasta la cabeza perder


C5       B5          Em5  riff 3
    e|-------------------------------------------|
    B|-------------------------------------------|
    G|-5-5-5-5-5-5--4-4-4-4-4--------------------|
    D|-5-5-5-5-5-5--4-4-4-4-4--2-2-2-2-2-2-2-2-2-|
    A|-3-3-3-3-3-3--2-2-2-2-2--2-2-2-2-2-2-2-2-2-|
    E|-------------------------0-0-0-0-0-0-0-0-0-|
  beber quiere beber, hasta caer, hasta caer


     D5              C5
     e|----------------------|
     B|----------------------|
     G|-0-0-5-5-5-5-5-5--4^^-|
     D|-0-0-5-5-5-5-5-5--4^^-|
     A|-0-0-3-3-3-3-3-3--2^^-|
     E|----------------------|
 quiuere beberrrrrrrrrrrrr     p.m......


xSOLO DE SAXOFÓNx va con: A5 - Em - A5 - Em - B5 - A5

   (( punteo,   imitacion del saxofòn.))
e|-----------------------------------------------------------|
B|-----------~-----------------------------------------------|
G|--17b^^^^^^^-17b^^^^^^^^16///////9--7-9/12p9~---12h14b^p12~|
D|-----------------------------------------------------------|
A|-----------------------------------------------------------|
E|-----------------------------------------------------------|

|---------------------------------------------|
|-----------~---------------------------------|
|-7h8-7h8-7h8-7h8-7h8-7h8-7h8-7h8-7h8-7h8-7h8-|
|---------------------------------------------|
|---------------------------------------------|
|---------------------------------------------|


|--------------------------------------------|
|-----------~--------------------------------|
|-14B^^-15B^^-17B^^^^^^------15-16----9/11-9-|
|----------------------15h17-------17--------|
|--------------------------------------------|
|--------------------------------------------|

|---------------------------------|
|-----------~---------------------|
|-9-9-11/13-11-9-12/15h12//////9~-|
|---------------------------------|
|---------------------------------|
|---------------------------------|
REPETIR INTRO
Intro:
     G5           B+5         B5-A5 Em5
e|-------------------------------------|
B|-------------------------------------|
G|-------------------------------------|
D|-x-x-5--x-x-5--x-x-9--x-x-9--4-5-7-2-|
A|-x-x-5--x-x-5--x-x-9--x-x-9--4-5-7-2-|
E|-x-x-3--x-x-3--x-x-7--x-x-7--2-3-5-0-|

cojudito


 Em         G5 A5  Em5        A5       Em5   A5     riff 1
e|-----------------------------------------------------|
B|-----------------------------------------------------|
G|-----------------------------------------------------|
D|-2-2-2-2-2--5-7--2-2-2-2-2---7-7-7-7-7-2-2-7-7-7-7-7-|
A|-2-2-2-2-2--5-7--2-2-2-2-2---7-7-7-7-7-2-2-7-7-7-7-7-|
E|-0-0-0-0-0--3-5--0-0-0-0-0---5-5-5-5-5-0-0-5-5-5-5-5-|
p.m.........       .........  ..........     .........
Emilio lleva   50 años en alcoho       y no se va


2riff
e|---------|
B|---------|
G|---------|
D|-4-5-7-2-|
A|-4-5-7-2-|
E|-2-3-5-0-|


 Em         G5 A5  Em5        A5       Em5   A5     riff 1
e|-----------------------------------------------------|
B|-----------------------------------------------------|
G|-----------------------------------------------------|
D|-2-2-2-2-2--5-7--2-2-2-2-2---7-7-7-7-7-2-2-7-7-7-7-7-|
A|-2-2-2-2-2--5-7--2-2-2-2-2---7-7-7-7-7-2-2-7-7-7-7-7-|
E|-0-0-0-0-0--3-5--0-0-0-0-0---5-5-5-5-5-0-0-5-5-5-5-5-|
p.m.........       .........  ..........     .........
llega el momento en que emilio quiere comer y no hay con que

INTERMEDIO
Em5 G5 A5  D5            C5  riff 3
e|---------------------------------------------------|
B|---------------------------------------------------|
G|--------7-7-7-7-7-7-7--5-5-5-5-5-------------------|
D|-2-5-7--7-7-7-7-7-7-7--5-5-5-5-5-2-2-2-2-5--5-7-7-7|
A|-2-5-7--5-5-5-5-5-5-5--3-3-3-3-3-2-2-2-2-5--5-7-7-7|
E|-0-3-5---------------------------0-0-0-0-3--3-5-5-5|
       y hezque emilio se ha topado con un tipo muy tranquilo

INTERMEDIO
Em5 G5 A5  D5            C5  riff 3
e|---------------------------------------------------|
B|---------------------------------------------------|
G|--------7-7-7-7-7-7-7--5-5-5-5-5-------------------|
D|-2-5-7--7-7-7-7-7-7-7--5-5-5-5-5-2-2-2-2-5--5-7-7-7|
A|-2-5-7--5-5-5-5-5-5-5--3-3-3-3-3-2-2-2-2-5--5-7-7-7|
E|-0-3-5---------------------------0-0-0-0-3--3-5-5-5|
al cual emilio le ha robado unos cuantos bocadillos

 A5 G5 Em  G5          A5
e|-----------------------------|
B|-----------------------------|
G|-----------------------------|
D|-7-5-2---5--5-5-5--5-7-7-7-7-|
A|-7-5-2---5--5-5-5--5-7-7-7-7-|
E|-5-3-0---3--3-3-3--3-5-5-5-5-|
          EMILIO!!      tiene problemas

     G5          A5
e|------------------------|
B|------------------------|
G|------------------------|
D|----5--5-5-5--5-7-7-7-7-|
A|----5--5-5-5--5-7-7-7-7-|
E|----3--3-3-3--3-5-5-5-5-|
       emilio            quiere salir de allí

     G5          A5
e|------------------------|
B|------------------------|
G|------------------------|
D|----5--5-5-5--5-7-7-7-7-|
A|----5--5-5-5--5-7-7-7-7-|
E|----3--3-3-3--3-5-5-5-5-|
       emilio              algo frío en la cabeza


     G5          A5             B5
e|------------------------------------|
B|---------------------------------------|
G|---------------------------------------|
D|----5--5-5-5--5-7-7-7-7----x-x-9-x-x-9-|
A|----5--5-5-5--5-7-7-7-7----x-x-9-x-x-9-|
E|----3--3-3-3--3-5-5-5-5----x-x-7-x-x-7-|
       emilio      solo quería beberrrrrr

CORO

      CORO

           C5       B5          Em5  riff 3
    e|-------------------------------------------|
    B|-------------------------------------------|
    G|-5-5-5-5-5-5--4-4-4-4-4--------------------|
    D|-5-5-5-5-5-5--4-4-4-4-4--2-2-2-2-2-2-2-2-2-|
    A|-3-3-3-3-3-3--2-2-2-2-2--2-2-2-2-2-2-2-2-2-|
    E|-------------------------0-0-0-0-0-0-0-0-0-|
  beber quiere beber, hasta caer, hasta caer


           C5       B5          Em5  riff 3
    e|--------------------------------------------|
    B|--------------------------------------------|
    G|-0-0-5-5-5-5-4-4-4-4-4----------------------|
    D|-0-0-5-5-5-5-4-4-4-4-4--2-2-2-2-5-5-7-7-7-2-|
    A|-0-0-3-3-3-3-2-2-2-2-2--2-2-2-2-5-5-7-7-7-2-|
    E|------------------------0-0-0-0-3-3-5-5-5-0-|

 quiere beberrr, hasta la cabeza perder


C5       B5          Em5  riff 3
    e|-------------------------------------------|
    B|-------------------------------------------|
    G|-5-5-5-5-5-5--4-4-4-4-4--------------------|
    D|-5-5-5-5-5-5--4-4-4-4-4--2-2-2-2-2-2-2-2-2-|
    A|-3-3-3-3-3-3--2-2-2-2-2--2-2-2-2-2-2-2-2-2-|
    E|-------------------------0-0-0-0-0-0-0-0-0-|
  beber quiere beber, hasta caer, hasta caer

           C5       B5          Em5  riff 3
    e|--------------------------------------------|
    B|--------------------------------------------|
    G|-0-0-5-5-5-5-4-4-4-4-4----------------------|
    D|-0-0-5-5-5-5-4-4-4-4-4--2-2-2-2-5-5-7-7-7-2-|
    A|-0-0-3-3-3-3-2-2-2-2-2--2-2-2-2-5-5-7-7-7-2-|
    E|------------------------0-0-0-0-3-3-5-5-5-0-|
 quiuere beberrr, hasta la cabeza perder


        C5       B5          Em5  riff 3
    e|--------------------------------------------|
    B|--------------------------------------------|
    G|-0-0-5-5-5-5-4-4-4-4-4----------------------|
    D|-0-0-5-5-5-5-4-4-4-4-4--2-2-2-2-5-5-7-7-7-2-|
    A|-0-0-3-3-3-3-2-2-2-2-2--2-2-2-2-5-5-7-7-7-2-|
    E|------------------------0-0-0-0-3-3-5-5-5-0-|
  beber quiere beber, hasta caer, hasta caer


          D5              C5
     e|----------------------|
     B|----------------------|
     G|-0-0-5-5-5-5-5-5--4^^-|
     D|-0-0-5-5-5-5-5-5--4^^-|
     A|-0-0-3-3-3-3-3-3--2^^-|
     E|----------------------|
 quiuere beberrrrrrrrrrrrr     p.m......
 quiuere beberrrrrrrrrrrrr     p.m......

!!!!!!!!estos son los acordes!!!!!!!

A5 G5 Em B5 C  D5 C5
e|------------------|
B|------------------|
G|-------4--5--7--5-|
D|-7-5-2-4--5--7--5-|
A|-7-5-2-2--5--5--3-|
E|-5-3-0------------|

CUALQUIER DUDA, AGANLA LLEGAR, PARA CORREGIRLA.
esta es otra version,    palas q sea....
ruffuz666@
busquenos en nuestra pagina web
    2800 voltios

            
            
Suggest correction
Creating personal tab
Creating personal tab
You can edit any tab online and save it as your Personal.

You can edit, replace or remove any tab part or add personal notes – all changes will be seen only by you.

Personal tabs can be accessed anytime from any device, even offline.
Learn more »
Give kudos to tab author, rate the tab!
1 2 3 4 5
comments
print report bad tab
guest
Wanna post a correction for this tab? Suggest correction