Oops, an error
Loading. Please wait.

Puntos Adyacentes tab

by Nadie
45 views 1 this week
no commentswrite comment
1 2 3 4 5
3 more votes to show rating
add to favorites
×
Save as Personal and add changes to this tab that will be seen only by you. Learn more ›
×
You can save this tab as Personal to edit and correct it or add notes. All changes will be seen only by you. Learn more »
launch autoscroll
font size
0
reset
how to read this tab
guitar tuner
edit
Autoscroll
slow
fast
+/-
esc
set tempo
stop
trascripciòn por 2800 voltios
mauricio parra-ruffuz666@


NADIE
puntos ayacentes

  Em5                       C5
   caminando por las calles, desafiando la mentira
Em5
   de este mundo gris me a dado
                          D5
   cuantas veces enjaulado
                    C5
   con el alma y al mente entre mis manos
Em5
   para empezar nunca es tarde,
  D5                 C5             Em5
   y no quedar en el avismo atrapado

intermedio--           D5    E5 D5    E5  D5 E5
E|----------------------------------------------------------------|
B|----------------------------------------------------------------|
G|---------------------7-7-7--9-7-7-7-9-9-7-9-9-------------------|
D|---------------------7-7-7--9-7-7-7-9-9-7-9-9-----------------2-|
A|-3-/5-6-7-8-6/8-3/5--5-5-5--7-5-5-5-7-7-5-7-7-7/8-7-7-6-5-4-3-2-|
E|----------------------------------------------------------------|
ESTE INTERMEDIO NO ESTÀ MUY BUENO...

 Em5
   son mis huellas que se es puman
  D5                           C5
   y las respuestas en puntos ayacentes

      E|---------------|
      B|---------------|
      G|---------------|
      D|-------------2-|
      A|-------2-----2-|
      E|-2-4-5---3-4-0-|


Em5
   e caido desde muy alto contra el suelo
  D5                 C5      Em5
   y sin miedo ciento de veces

      E|---------------|
      B|---------------|
      G|---------------|
      D|-------------2-|
      A|-------2-----2-|
      E|-2-4-5---3-4-0-|
Em5
  Asì reir ante la vida o desiquilibrarme
D5                      C5                    Em5
  en los brazos de la muerte y del eme ayacente

(ESTE ES LA IMITACIÒN DEL SAXOFON)
E|---------------------------------------------------|
B|-------------------------------------------13b^^^^-|
G|-11b^^-12-11-10-9-10-9h10-9----12p11-12p11---------|
D|----------------------------10---------------------|
A|---------------------------------------------------|
E|---------------------------------------------------|

E|--------------------------------------------------------------|
B|------------------------13b^^^^-17b-15b-13b-------------------|
G|-12-11-10-9-10-9h10-9-----------------------13//////99-/10/13-|
D|----------------------10--------------------------------------|
A|--------------------------------------------------------------|
E|--------------------------------------------------------------|

E|--------------------------------|
B|-13b^^^^-11^-12-11-13b^^^^------|
G|--------------------------------|
D|--------------------------------|
A|--------------------------------|
E|--------------------------------|

y como ya se los dije hay un
intermedio màs o menos malito
pero hay està,   bueno que es nadie....
mauricio parra-ruffuz666@

ACORDES
Em5 C5 D5 E5
x   x  x  x      skaterock
x   x  x  x
x   5  7  9              2800 voltios
2   5  7  9
2   3  5  7    estamos en el myspace
0   x  x  x

pidan cnciones de ellos   -   nadie

            
            
Suggest correction
Creating personal tab
Creating personal tab
You can edit any tab online and save it as your Personal.

You can edit, replace or remove any tab part or add personal notes – all changes will be seen only by you.

Personal tabs can be accessed anytime from any device, even offline.
Learn more »
Give kudos to tab author, rate the tab!
1 2 3 4 5
comments
print report bad tab
guest
Wanna post a correction for this tab? Suggest correction