Oops, an error
Loading. Please wait.

Torero tab

by Nadie
68 views 1 this week
no commentswrite comment
1 2 3 4 5
3 more votes to show rating
add to favorites
×
Save as Personal and add changes to this tab that will be seen only by you. Learn more ›
×
You can save this tab as Personal to edit and correct it or add notes. All changes will be seen only by you. Learn more »
launch autoscroll
font size
0
reset
how to read this tab
guitar tuner
edit
Autoscroll
slow
fast
+/-
esc
set tempo
stop
trascripciòn por 2800 voltios
mauricio parra  ruffuz666@

NADIE
toreador

INTRO                               X2
E|-7-9/11-11-9-11-9----------------------------------------|
B|------------------11-9v-9-7-9-9-5-7/8-9------------------|
G|-----------------------------------------7-9-7-7-5-5/6-5-|
D|---------------------------------------------------------|
A|---------------------------------------------------------|
E|---------------------------------------------------------|

    C5             E5          C5
E|------------------------------------------|
B|------------------------------------------|
G|-5-5-5-5-5-5--5/9-9-9-9-9-9-7-7-7-7-7-7-7-|
D|-5-5-5-5-5-5--5/9-9-9-9-9-9-7-7-7-7-7-7-7-|
A|-3-3-3-3-3-3--3/7-7-7-7-7-7-5-5-5-5-5-5-5-|
E|------------------------------------------|
             OLE!!!!!!!!
     C5         A5        G5
E|---------------------------------|
B|---------------------------------|
G|-5-5-5-5-5-5---------------------|
D|-5-5-5-5-5-5-7-7-7-7-7-5-5-5-5-5-|
A|-3-3-3-3-3-3-7-7-7-7-7-5-5-5-5-5-|
E|-------------5-5-5-5-5-3-3-3-3-3-|


C5                                  A5         G5
sabado en la tarde en la macarena, todos los toros ala faena
C5                        A5           G5
con su voleta en la mano, vann a entrar a la corrida!
C5              A5         G5
veo un humano, con su traje de piñata
C5                  A5           G5
llamados por todos, esos ignorantes un torero!

       G5     D5        C5
E|-------------------------------|
B|-------------------------------|
G|-----------7-7-7-7-7-5-5-5-5-5-|   X2
D|-5-5-5-5-5-7-7-7-7-7-5-5-5-5-5-|
A|-5-5-5-5-5-5-5-5-5-5-3-3-3-3-3-|
E|-3-3-3-3-3---------------------|


G5      D5            C5
yo quisiera ver ese humano
G5      D5            C5
con traje de piñata en el ruedo
G5      D5            C5
muchas banderillas en su costado
G5      D5            C5
y en su cadaver ver el  miedo

CORO!!!
G5     B5       A5
todos los toros gritan ole!!
G5     B5       A5
todos los toros gritan ole!!
G5     B5       A5
todos los toros gritan ole!!
G5     B5       A5
todos los toros gritan ole!!

   G5        D5        C5
E|-------------------------------|
B|-------------------------------|
G|-----------7-7-7-7-7-5-5-5-5-5-|   X2
D|-5-5-5-5-5-7-7-7-7-7-5-5-5-5-5-|
A|-5-5-5-5-5-5-5-5-5-5-3-3-3-3-3-|
E|-3-3-3-3-3---------------------|

G5          D5    C5
queee placer el que me da
G5          D5    C5
ver ese idiota en el ruedo
G5           D5    C5
ahogandose en su propia sangre
G5           D5     C5
y los toros pidiendo orejas

CORO!!!
G5     B5       A5
todos los toros gritan ole!!
G5     B5       A5
todos los toros gritan ole!!


ACORDES
D5 C5 B5 G5 A5 E5
x  x  x  x  x  x
x  x  x  x  x  x
7  5  x  x  x  9
7  5  9  5  7  9    VOLTIOS!!!!!!!
5  3  9  5  7  7                DESCARGA
x  x  7  3  5  x

LISTO, ESTA , ESTÀ CASI PERFECTA, ES MUY BUENA...

            
            
Suggest correction
Creating personal tab
Creating personal tab
You can edit any tab online and save it as your Personal.

You can edit, replace or remove any tab part or add personal notes – all changes will be seen only by you.

Personal tabs can be accessed anytime from any device, even offline.
Learn more »
Give kudos to tab author, rate the tab!
1 2 3 4 5
comments
print report bad tab
guest
Wanna post a correction for this tab? Suggest correction