Oops, an error
Loading. Please wait.

Salta bass

by Naf
116 views 6 this week
no commentswrite comment
1 2 3 4 5
3 more votes to show rating
add to favorites
×
Save as Personal and add changes to this tab that will be seen only by you. Learn more ›
×
You can save this tab as Personal to edit and correct it or add notes. All changes will be seen only by you. Learn more »
launch autoscroll
font size
0
reset
guitar tuner
edit
Autoscroll
slow
fast
+/-
esc
set tempo
stop
bueno esta es mi primera tablatura suena bien 
spero ke les guste y dice :

intro:

g---------------------------------------------
d---------------------------------------------
a-5-5--7>8--10--8-7-8----3-3---5>6---8---6-5-6
e---------------------------------------------

esto se repite 2 veces y al terminar de la ultima va esto

g---------
d---------
a--5-6-5--
e---------

y ya se pasa a la estrofa 

g--------------------------------------------------
d--------------------------------------------------
a-5555---55555555---555555555--555---7-5-3--7-5-3>9
e--------------------------------------------------

coro:
g------------------------
d------------------------
a---7-5-3-7-5-3>9--------
e------------------------

se repite en todo el coro 

la segunda estrofa es igual 

el solo es mas menos asi
parte 1 :
g-------------------------------------------------------------------
d-------------------------------------------------------------------
a--5-7-8-7-5-3-5-0----5-7-8-7-5>12-11-10-7-7>8-8-7-7>8-8>10---5-7--0
e-------------------------------------------------------------------

parte 2:
g------------------------------------------------
d------------------------------------------------
a-5-7-8-7-5>12-11-10---3--333333333--------------
e------------------------------------------------

y se regresa al coro y ya eso es todo ta facil y chida dudas y comentarios 
ya saben donde ok chido pues ke Dios me los bbendiga muy chido

            
            
Suggest correction
Creating personal tab
Creating personal tab
You can edit any tab online and save it as your Personal.

You can edit, replace or remove any tab part or add personal notes – all changes will be seen only by you.

Personal tabs can be accessed anytime from any device, even offline.
Learn more »
Give kudos to tab author, rate the tab!
1 2 3 4 5
comments
print report bad tab
guest
Wanna post a correction for this tab? Suggest correction