Oops, an error
Loading. Please wait.

Verdad Distorsionada chords

by Naf
10 views 1 this week
no commentswrite comment
1 2 3 4 5
3 more votes to show rating
add to favorites
×
Save as Personal and add changes to this tab that will be seen only by you. Learn more ›
×
You can save this tab as Personal to edit and correct it or add notes. All changes will be seen only by you. Learn more »
launch autoscroll
font size
0
reset
transpose
0
reset
display chords
guitar tuner
edit
Autoscroll
slow
fast
+/-
esc
set tempo
stop
Strumming
There is no strumming pattern for this song yet. and get +5 IQ
E |------------|
B |------------|
G |------------|
D |---------5--|
A |--5h8--8----|
D |------------|


---- [estrofa]

D
le llamas arte A la pornografía
D                              F       G
verdad distorsionada cuando es pura mentira
D
te crees sincero cantando groserías
D                           F         G
cuando toda tu vida fue una vil porquería

D
gritas anticuada A la niña decente
D                          F        G
de mente abierta al de principios carentes
D
buena familia si es que tienes dinero
D                      F          G
aunque el dinero no te llevará al cielo


---- [riff] (2x)

E |----------------------|
B |----------------------|
G |----------------------|
D |-----------------5-0--|
A |--5-5--7-8---5-5------|
D |----------------------|


---- [estrofa 2]

D
le llamas idiota al hombre decente
D                    F         G
le llamas imbécil al hombre prudente
D
llamas fanático al que busca la verdad
D                      F         G
y de todo lo eterno no quieres hablar

D
no estás cansado de vivir en un mugrero?
D                       F          G
ahora es el tiempo de dejar el basurero
D            D            E E F   E E G 
no critiques más lo bueno

E |----------------|
B |----------------|
G |----------------|
D |-0-0-1---0-0-1--|
A |-0-0-1---0-0-1--|
D |-0-0-1---0-0-1--|
    E E F   E E G 


---- [coro]

   E      G           F#   A
le llamas bien cuando está mal
   E     G          F#       D
le dices si, cuando debe ser no
   E        G         F#       A
seguiste al frente en vez de parar
   E      G          F#      D
en este momento detente A pensar


---- [riff] (2x)

E |----------------------|
B |----------------------|
G |----------------------|
D |-----------------5-0--|
A |--5-5--7-8---5-5------|
D |----------------------|


---- [estrofa]

D
le llamas arte A la pornografía
D                              F       G
verdad distorsionada cuando es pura mentira
D
te crees sincero cantando groserías
D                           F         G
cuando toda tu vida fue una vil porquería

D
no estás cansado de estar en un mugrero?
D                       F          G
ahora es el tiempo de dejar el basurero
D
no critiques más lo bueno
D                   F          G 
cambia tu mente, ya piensa diferente


---- [riff]

E |----------------------|
B |----------------------|
G |----------------------|
D |-----------------5-0--|
A |--5-5--7-8---5-5------|
D |----------------------|


D
le llamas idiota al hombre decente
D                    F         G
le llamas imbécil al hombre prudente
D
llamas fanático al que busca la verdad
D                      F         G
y de todo lo eterno no quieres hablar

D
gritas anticuada A la niña decente
D                          F        G
de mente abierta al de principios carentes
D
buena familia si es que tienes dinero
D                      F          G
aunque el dinero no te llevará al cielo


---- [coro]

   E      G           F#   A
le llamas bien cuando está mal
   E     G          F#       D
le dices si, cuando debe ser no
   E        G         F#       A
seguiste al frente en vez de parar
   E      G          F#      D
en este momento detente A pensar

E

----- [puente] (2x)

E         E         E
no puedes continuar
E          E           E
con esa forma de pensar


---- [solo] (2x)

E |--------------------------------|
B |--------------------------------|
G |--------------------------------|
D |--------------------------------|
A |--7--7-5-7--7-5-7-8-7-5-7--7-5--|
D |--------------------------------|

E |---------------------------------------|
B |---------------------------------------|
G |---------------------------------------|
D |-------------------5--------5----------|
A |--7-8-7-5-7-8-7-5----8-7-5----8-7-5-7--|
D |---------------------------------------|


---- [coro] (2x)

   E      G           F#   A
le llamas bien cuando está mal
   E     G          F#       D
le dices si, cuando debe ser no
   E        G         F#       A
seguiste al frente en vez de parar
   E      G          F#      D
en este momento detente A pensar


     E     G    F#     A   E     G    F#     D
E |-----------------------------------------------|
B |-----------------------------------------------|
G |-----------------------------------------------|
D |--4-4-4-7-7-------------4-4-4-7-7--------------|
A |-------------7-7-7-10--------------7-7-7-10----|
D |-----------------------------------------------|


---- [coro] (2x)

   E      G           F#   A
le llamas bien cuando está mal
   E     G          F#       D
le dices si, cuando debe ser no
   E        G         F#       A
seguiste al frente en vez de parar
   E      G          F#      D
en este momento detente A pensar


--- [intro] (2x)

E |-----------|
B |-----------|
G |-----------|
D |--------5--|
A |--5--8-----|
D |-----------|


--------------------

acordes

E |------------------|
B |------------------|
G |------------------|
D |-0--2--3--4--5--7-|
A |-0--2--3--4--5--7-|
D |-0--2--3--4--5--7-|
    D  E  F  F# G  A

            
            
Suggest correction
Creating personal tab
Creating personal tab
You can edit any tab online and save it as your Personal.

You can edit, replace or remove any tab part or add personal notes – all changes will be seen only by you.

Personal tabs can be accessed anytime from any device, even offline.
Learn more »
Give kudos to tab author, rate the tab!
1 2 3 4 5
comments
print report bad tab
guest
Wanna post a correction for this tab? Suggest correction