Oops, an error
Loading. Please wait.

De Claudio tab

by Nagual
26 views 1 this week
no commentswrite comment
1 2 3 4 5
2 more votes to show rating
add to favorites
×
Save as Personal and add changes to this tab that will be seen only by you. Learn more ›
×
You can save this tab as Personal to edit and correct it or add notes. All changes will be seen only by you. Learn more »
launch autoscroll
font size
0
reset
how to read this tab
guitar tuner
edit
Autoscroll
slow
fast
+/-
esc
set tempo
stop
Intro:

             LAm  SI   DO     FA    SOL     LA  SOL
         |-------------------1--1---3--3---------------|
         |---0-0--2-2--3-3---3--3---5--5---0--0--------|
         |---2-2-------------3--3---5--5---2--2--0-----| X 2
         |---2-2-------------2--2---4--4---2--2--0-----|
         |---1-1---------------------------------------|
         |---------------------------------------------|

RIFF 1:Lam-SI-DO-FA-SOL-LA-SOL

        |-----------------------------------------------|
        |--3h7------------------------------------------|
        |-------7-7-9-7-10h12-10-9-10-9-5-7h9-7v--------|X 2
        |-----------------------------------------------|
        |-----------------------------------------------|
        |-----------------------------------------------|

|-----------------------------------------------------------|
|EL VERSO UNO TIENE MUY POCAS VARIACIONES CON LA INTRO PERO |
|SI LO TOCAS COMO LA INTRO QUEDA BIEN.                      |
|-----------------------------------------------------------|

Verso 1

LAm               FA  SOL              LAm    SOL
Me acerco a las manos,   de la revolución
Dijeron que es muy mala, para mi criolla nación
Yque tus besos no me alcanzan, tal vez te pida más
Del fruto que me activa, y me pone a pensar.

RIFF 1 x 2

Verso 2

       FA    MI      FA             MI
Me da pena seguir y valer por sus billetes
        FA        MI                 FA
Ya me cansé de esperar, de que no me abran la puerta
  MI   MI  MI  MI        RIFF 1 x 2
Hoy se la voy a patear, y les voy a entrar.

Verso 1

Morderé tu anzuelo, junto a la tentación
Que me lleva a ese cuerpo, una oscura seducción
Miro como se rién, Y se abrazan los hombres de traje
Campaña terminada,¿y ahora que?

Verso 2

Me da pena seguir y valer por sus billetes
Ya me cansé de esperar, de que no me abran la puerta
Hoy se la vamo a patear, y le vamo a entrar.
Se la vamos a patear, les vamos a entrar.


WENO GENTE ALTO TEMA DE NAGUAL FALTA EL PUNTEO NADA MAS PERO
LO DEMAS ESTA BIEN ES FACIL D TOCAR ESPERO Q LES SIRVA Y LO ENTIENDAN
CUALQUIER COSA ME ESCRIBEN nicogon_14@

AGUANTE NAGUAL!!

AGUANTE VIENTOS PROHIBIDOS!!!!


PASENSE X ACA TAMBIEN!!  

            
            
Suggest correction
Creating personal tab
Creating personal tab
You can edit any tab online and save it as your Personal.

You can edit, replace or remove any tab part or add personal notes – all changes will be seen only by you.

Personal tabs can be accessed anytime from any device, even offline.
Learn more »
Give kudos to tab author, rate the tab!
1 2 3 4 5
comments
print report bad tab
guest
Wanna post a correction for this tab? Suggest correction