Oops, an error
Loading. Please wait.

Hollow Syndicate Tab

708 views 1 this week
no commentswrite comment
1 2 3 4 5
please rate
add to favorites
launch autoscroll
font size
0
reset
how to read this tab
guitar tuner
Tab Pro tools
  • play this tab
  • loop segment
  • change instrument
  • show fretboard
  • metronome
×
Best way to learn
"Hollow Syndicate"
Autoscroll
slow
fast
+/-
esc
set tempo
stop
Contributor
Difficulty
Tuning
intermediate
D G C F A D
-------------------------------------------------------------------------------
                             Hollow Syndicate - Naildown
-------------------------------------------------------------------------------
Tabbed by: FacetOfChaos
Email: abcnumber4@yahoo.com

Tuning: D standard (DGCFAD)

This tab isn't perfect but I think it's pretty close and should at least provide a 
solid start for anyone who wishes to learn the song. Some parts were pretty hard to pick out.

Intro (The bit played under the synth. Starts out quiet)
D|------------------------------|
A|------------------------------|
F|------------------------------|
C|---------------4---4--4-5-4---|
G|-5-7-0-0-7-0-0--------------7-|
D|------------------------------|x4

Verse (I put the x8 and such to save space instead of typing infinity 0's)
D|-----------------------------------------------|-----------|
A|-----------------------------------------------|-----------|
F|-----------------------------------------------|-----------|
C|-----------------------------------------------|-----------|
G|-----------------------------------------------|-2-5---5-5-|
D|-0-0-0-0-x8--0-3*--0-0-0-0-x4--0-3*--0-0-0-0-x2|-0-3-0-3-3-|

D|-----------------------------------------------|-----------|
A|-----------------------------------------------|-----------|
F|-----------------------------------------------|-----------|
C|-----------------------------------------------|-----------|
G|-----------------------------------------------|-2-5---7-5-|
D|-0-0-0-0-x8--0-3*--0-0-0-0-x4--0-3*--0-0-0-0-x2|-0-3-0-5-3-|

Pre-Chorus
D|------------------------------------------------------|
A|------------------------------------------------------|
F|------------------------------------------------------|
C|------------------------------------------------------|
G|-4--4-4--4-4--5--5-5--5-5--2--2-2--2-2--4/5----5--5-5-|
D|-2--2-2--2-2--3--3-3--3-3--0--0-0--0-0--2/3-0--3--3-3-|x2

Chorus
D|---------------------|-------------------------------------------------|
A|---------------------|-------------------------------------------------|
F|---------------------|-------------------------------------------------|
C|----------------5----|--------------------------5-----------------5----|
G|-2----4----5----3--7-|------2----4----5----7----3--2----4----5----3--7-|
D|-0----2----3-------5-|x2----0----2----3----5-------0----2----3-------5-|

Chorus Ending 1 (This isn't exact)
D|----------------------------|
A|----------------------------|
F|---------------2------------|
C|-5---5-5---7---3------2-----|
G|-3---3---3---3-3--5-----2---|
D|------------------3-----0---|

Verse
Pre-Chorus
Chorus

Chorus Ending 2
D|--------------------------------------------------------|
A|--------------------------------------------------------|
F|--------------------------------------------------------|
C|-5-5--5-5-5--5-5-5--5-5-5--5---------------7-7-7-7--7/9-|
G|-3-3--3-3-3--3-3-3--3-3-3--3-7-7--7-7-7--7-5-5-5-5--5/7-|
D|-----------------------------5-5--5-5-5--5--------------|

Breakdown
D|-----------------------------------------------------|
A|-----------------------------------------------------|
F|-----------------------------------------------------|
C|-----------------------------------------------6-----|
G|---------------7-5-7-8-7-5---------------7-8-7-----8-|
D|-0-0--0-0-0--0-------------0-0--0-0-0--0-------------|

D|----------------------------------------------------------|
A|----------------------------------------------------------|
F|----------------------------------------------------------|
C|----------------------------------------------------------|
G|---------------7-5-7-8-7-5--------------------------------|
D|-0-0--0-0-0--0--------------0-0--0-0-0--0--0-0-0-0-0-0--0-|

D|--------------------------------------------------------------|
A|---------------------------------------------9-9-9-10-10-10---|
F|---------------------------------------------9-9-9-10-10-10---|
C|------------------------------------------------------------0-|
G|-----------------7-5-7-8-7-5----------------------------------|
D|-0-0-0-0-0-0-0-0-------------0-0-0-0-0-0-0-0------------------|

D|-------------------------------------------------------------------|
A|-------------------------------------------------------------------|
F|-------------------------------------------------------------------|
C|-------------------------------------------------------------------|
G|-----------------7-5-7-8-7-5-----------------5-5-5-7-7-7-----2-----|
D|-0-0-0-0-0-0-0-0-------------0-0-0-8-8-8-5-5-------------3-3-0-----|

Solo (Some parts were hard to hear so it's not 100%)
D|-----------------------------------------------------------------|
A|-----8----------------------------------12-----------12-12/13-12-|
F|---9---9~--7-9-7---------------------12-----------12-------------|
C|-7----------------10--7--9b10r9~--14-------14--14----------------|
G|-----------------------------------------------------------------|
D|-----------------------------------------------------------------|

D|--------------------------------------------------------|
A|----------------------13-12-----------------------------|
F|-14-12-------14-12~---------14-12-14-12-----------------|
C|-------14-12----------------------------14-12-14-12-12~-|
G|--------------------------------------------------------|
D|--------------------------------------------------------|

D|-------------------------------19-22-24---19-22-19-24-19-22-19-24~-|
A|----------------------------22-------------------------------------|
F|-------14-17-(17)/19-----21----------------------------------------|
C|----14----------------19-------------------------------------------|
G|-17----------------------------------------------------------------|
D|-------------------------------------------------------------------|

D|----------------------------|
A|----------------------------|
F|----------------------------|
C|-14\----------2--2--2-2-2-2-|
G|-14\----------2--2--2-2-2-2-|
D|-12\----------0--0--0-0-0-0-|

Chorus
Breakdown

Last chord of breakdown is changed to this:
D|--------------------------|
A|--------------------------|
F|-4------------------------|
C|-4------------------------|
G|-2------------------------|
D|--------------------------|
Just let the chord fade out.



************************************

| ()  ghost note
| *   artificial harmonic
| /   slide up
| \   slide down
| h   hammer-on
| p   pull-off
| ~   vibrato
| +   harmonic
| x   Mute note
| b   Bend
| pb  Pre-bend
| br  Bend release
| pbr Pre-bend release
| brb Bend release bend

************************************
comments
We did not receive enough feedback on this tab! Please rate:
print report bad tab
1 2 3 4 5
I want to post or [tab]
guest
You may want to rate the tab now too:
select rating
Please do not post tabs as comments. Select "correction" instead!