Oops, an error
Loading. Please wait.

Worn Out Tab

version 1
version 1

Whole song

Interactive

695 views 1 this week
no commentswrite comment
1 2 3 4 5
accurate
x 4
add to favorites
launch autoscroll
font size
0
reset
how to read this tab
guitar tuner
Autoscroll
slow
fast
+/-
esc
set tempo
stop
Help us to improve Ultimate-Guitar.com Take our survey!
×
Author
Difficulty
novice
P.M. = palm mute

Intro

P.M.*** *** *** *** ** **
e |--------------------------------------|
B |--------------------------------------|
G |--------------------------------------|
D |-888-444-666-----66-77----------------|  x2
A |-666-222-444-666-44-55----------------|
E |-------------444----------------------|

Verse

e |--------------------------------------|
B |--------------------------------------|
G |--------------------------------------|
D |-888-444-666-----66-77----------------|  x4
A |-666-222-444-666-44-55----------------|
E |-------------444----------------------|


P.M.** *** *** *** *** *** *** ***           
e |--------------------------------------|
B |--------------------------------------|
G |--------------------------------------|
D |-88-888-884-444-446-666-664-444-------|  x4 
A |-66-666-662-222-224-444-442-222-------|
E |--------------------------------------|

Chorus

u have to find out the strumming
e |--------------------------------------|
B |--------------------------------------|
G |-8-------4---6------------------------|
D |-8---4---4---6------------------------| x2
A |-6---4---2---4------------------------|
E |-----2--------------------------------|


P.M.** *** *** *** *** *** *** ***           
e |--------------------------------------|
B |--------------------------------------|
G |--------------------------------------|
D |-88-888-884-444-446-666-664-444-------|  x4 
A |-66-666-662-222-224-444-442-222-------|
E |--------------------------------------|

Chorus

Strumming
e |--------------------------------------|
B |--------------------------------------|
G |-8-------4---6------------------------|
D |-8---4---4---6------------------------| x2
A |-6---4---2---4------------------------|
E |-----2--------------------------------|

Intro

P.M.*** *** *** *** ** **
e |--------------------------------------|
B |--------------------------------------|
G |--------------------------------------|
D |-888-444-666-----66-77----------------|  x8
A |-666-222-444-666-44-55----------------|
E |-------------444----------------------|

Verse

e |--------------------------------------|
B |--------------------------------------|
G |--------------------------------------|
D |-888-444-666-----66-77----------------|  x4
A |-666-222-444-666-44-55----------------|
E |-------------444----------------------|

P.M.****************
e |--------------------------------------|
B |--------------------------------------|
G |--------------------------------------|
D |-8888888888888888---------------------|
A |-6666666666666666---------------------|
E |--------------------------------------|

Chorus

Strumming
e |--------------------------------------|
B |--------------------------------------|
G |-----4--------------------------------|
D |-4---4---6---4------------------------| x1
A |-4---2---6---4------------------------|
E |-2-------4---2------------------------|

Strumming
e |--------------------------------------|
B |--------------------------------------|
G |-8-------4---6------------------------|
D |-8---4---4---6------------------------| x1
A |-6---4---2---4------------------------|
E |-----2--------------------------------|

Verse

e |--------------------------------------|
B |--------------------------------------|
G |--------------------------------------|
D |-888-444-666-----66-77----------------|  x8
A |-666-222-444-666-44-55----------------|
E |-------------444----------------------|

Suggest correction
comments
print report bad tab
guest
You may want to rate the tab now too:
select rating
Wanna post a correction for this tab? Suggest correction