Oops, an error
Loading. Please wait.

Unsilent Death tab

version 1
version 1

Whole song

  • This is a different and correct version of the mai... Show more

Interactive

by Nails
175 views 12 this week
no commentswrite comment
1 2 3 4 5
3 more votes to show rating
add to favorites
×
Save as Personal and add changes to this tab that will be seen only by you. Learn more ›
×
You can save this tab as Personal to edit and correct it or add notes. All changes will be seen only by you. Learn more »
launch autoscroll
font size
0
reset
how to read this tab
guitar tuner
edit
Autoscroll
slow
fast
+/-
esc
set tempo
stop
About this tab version
This is a different and correct version of the main riff and the chorus riff. Transcribed by ear and by looking at live videos. Was this info helpful? Yes No
C-standard tuning
Palm mute the open C.

[Main riff]
c |-------------------------------------------------------------|
G |-------------------------------------------------------------|
Eb|-------------------------------------------------------------|
Bb|-3-------3-------3-----3--8--6-3-------3-------3-----3-----6-|
F |-3-------3-------3-----3--8--6-3-------3-------3-----3--2--6-|
C |-1-0-0-0-1-0-0-0-1-0-0-1--6--4-1-0-0-0-1-0-0-0-1-0-0-1--0--4-| 

[Chorus riff]
c |----------|
G |----------|
Eb|----------|
Bb|-3-4------|
F |-3-4-2----|
C |-1-2-0----|

            
            
Suggest correction
Creating personal tab
Creating personal tab
You can edit any tab online and save it as your Personal.

You can edit, replace or remove any tab part or add personal notes – all changes will be seen only by you.

Personal tabs can be accessed anytime from any device, even offline.
Learn more »
Give kudos to tab author, rate the tab!
1 2 3 4 5
comments
print report bad tab
guest
You may want to rate the tab now too:
select rating
Wanna post a correction for this tab? Suggest correction