Oops, an error
Loading. Please wait.

Mirror Tab

279 views 1 this week
no commentswrite comment
1 2 3 4 5
worth learning
x 2
add to favorites
launch autoscroll
font size
0
reset
how to read this tab
guitar tuner
Tab Pro tools
  • play this tab
  • loop segment
  • change instrument
  • show fretboard
  • metronome
Autoscroll
slow
fast
+/-
esc
set tempo
stop
Contributor
Difficulty
Tuning
novice
D A D G B E
-----------------------------------------------------------------
The Mirror - Naio Ssaion
-----------------------------------------------------------------
Tabbed by: duncang
Email: ghostofchristmaspudding@hotmail.com

This is a female-fronted band, in a similar vein to Evanescence,
Nightwish etc. Very catchy song, though I haven't heard much else
from them. Their official website is http://www.naiossaion.com/

Tuning: Drop D

Intro
******

Guitar 1 (Clean)

e|------------------------------------------------------------------|
B|------------------------------------------------------------------|
G|-----9-9/10~-------9-9/10~------9-9/10~--------7-7----7-7--9-7\6/7| x3 
D|-7-7-----------8-8-------------------------5-5----7-7-------------|
A|----------------------------8-8-----------------------------------|
D|------------------------------------------------------------------|
  PM...           ...          ...

Then: 
 
e|---------------------------------------------------------------|
B|---------------------------------------------------------------|
G|-----9-9-10~-------9-9-10~------9-9-10~--------7-7-------------| 
D|-7-7-----------8-8-------------------------5-5----7-7--7~------|
A|----------------------------8-8--------------------------------|
D|---------------------------------------------------------------|
 PM...           ...          ...

Guitar 2 (comes in when Guitar 1 is on 3rd time playing melody, lightly distorted, bassy)

e|---------------------------------------------------------------|
B|---------------------------------------------------------------|
G|---------------------------------------------------------------|
D|-0---8---3---5---7---------------------------------------------| x2
A|-0---8---3---5---7-(let ring 2nd time)-------------------------|
D|-0---8---3---5---7---------------------------------------------|

Verse:
******

Guitar 1 (Clean, quiet, delay)

e|---------------------------------------------------------------|
B|---------------------------------------------------------------|
G|--------------------10-1010-------------------7-7--------------|
D|-----3-33------------------------------------5-7---------------| x2
A|------------------------------------0-00-----------------------|
D|--0-let-ring------8-let ring------3-let ring-------------------|


e|---------------------------------------------------------------|
B|---------------------------------------------------------------|
G|---------------------------------------------------------------| x2
D|---------------------------------------------------------------|
A|-----778------778------223-------------------------------------|
D|--77-------88-------33---------5-------------------------------|

Chorus 
******

Guitars 1 & 2 , distortion

e|---------------------------------------------------------------|
B|---------------------------------------------------------------|
G|---------------------------------------------------------------|
D|--0--5--3------0--3--7--5--------------------------------------|
A|--0--5--3------0--3--7--5--------------------------------------|
D|--0--5--3------0--3--7--5--------------------------------------|

Verse 2
********

Guitar 1, lead, light distortion, delay

e|------------------------------------------------3-1------------|
B|------------------------------6---------------------3-1-3------|
G|---7-7-77------------57-7-77-----7-5-7---577-77----------------|
D|---------------------------------------------------------------|
A|---------------------------------------------------------------|
D|---------------------------------------------------------------|

Repeat Chorus

Violin Solo

Guitar 1, same as intro

e|---------------------------------------------------------------|
B|---------------------------------------------------------------|
G|-----9-9-10~-------9-9-10~------9-9-10~--------7-7-------------| 
D|-7-7-----------8-8-------------------------5-5----7-7--7~------|
A|----------------------------8-8--------------------------------|
D|---------------------------------------------------------------|

Guitar 2 (same as intro)

e|---------------------------------------------------------------|
B|---------------------------------------------------------------|
G|---------------------------------------------------------------|
D|-0---8---3---5---7---------------------------------------------| x2
A|-0---8---3---5---7-(let ring 2nd time)-------------------------|
D|-0---8---3---5---7---------------------------------------------|

e|---------------------------------------------------------------|
B|---------------------------------------------------------------|
G|---------------------------------------------------------------|
D|-0---8---3---5---7-7-7-9-9-9-----------------------------------| 
A|-0---8---3---5---7-7-7-9-9-9-----------------------------------|
D|-0---8---3---5---7-7-7-9-9-9-----------------------------------|

Repeat Chorus x3 Fades out on 4th chorus repetition....

Easy song, fun to play too.


| /  slide up
| \  slide down
| h  hammer-on
| p  pull-off
| ~  vibrato
| +  harmonic
| x  Mute note
comments
We did not receive enough feedback on this tab! Please rate:
print report bad tab
1 2 3 4 5
I want to post or [tab]
guest
You may want to rate the tab now too:
select rating
Please do not post tabs as comments. Select "correction" instead!