Oops, an error
Loading. Please wait.

Janeiro Bass Tab

112 views 1 this week
no commentswrite comment
1 2 3 4 5
3 more votes to show rating
add to favorites
launch autoscroll
font size
0
reset
guitar tuner
Autoscroll
slow
fast
+/-
esc
set tempo
stop
Help us to improve Ultimate-Guitar.com Take our survey!
×
Author
Difficulty
novice
Song : Janeiro
Artist : Naive New Beaters
Album : Wallace


Intro :

G |----------------------|
D |----------------------|
A |---9-----12----5----2-| x2
E |-7----10-----3----0---|

Verse : 

G |----------------------|
D |----------------------|
A |---9-----12----5----2-| x4
E |-7----10-----3----0---|

G |-------------------|
D |-------------------|
A |---2----2----5---5-| x2
E |-0----0----3---3---|

G |----------------------|
D |----------------------|
A |---9-----12----5----2-| x4
E |-7----10-----3----0---|

Chorus : 

G |-----------|
D |-----4-4/2-|
A |-22/5------| x2
E |-----------|

G |--------------------|
D |---4----7-----------|
A |-2----5------5----2-| x4
E |-----------3----0---|

Post-Chorus : 

G |-----------------|
D |-----------------|
A |---9-----12----5-| x1
E |-7----10-----3---|

Verse 2 :

G |----------------------|
D |----------------------|
A |---9-----12----5----2-| x4
E |-7----10-----3----0---|

G |--------------------------|
D |--------------------------|
A |---9r-----12r----5r----2r-| x2
E |-7-----10------3-----0----|

G |----------------------|
D |----------------------|
A |---9-----12----5----2-| x2
E |-7----10-----3----0---|

Chorus 2 :

G |-----------|
D |-----4-4/2-|
A |-22/5------| x2
E |-----------|

G |--------------------|
D |---4----7-----------|
A |-2----5------5----2-| x4
E |-----------3----0---|

Outro : No bass until 02:23
I don't know which riff is good so I've tabbed two different riffs : choose the better!

G |---------------------|
D |--------------4----2-|
A |---2----5---2----0---| x6
E |-0----3--------------|

or

G |--------------------|
D |----------44-4-22-2-|
A |-22-2-55-5----------| x6
E |--------------------|

That's it, please rate! :)
Suggest correction
Give kudos to tab author, rate the tab!
1 2 3 4 5
comments
print report bad tab
guest
You may want to rate the tab now too:
select rating
Wanna post a correction for this tab? Suggest correction