Oops, an error
Loading. Please wait.

Anxiete chords

185 views 3 this week
no commentswrite comment
1 2 3 4 5
1 last vote to show rating
add to favorites
×
Save as Personal and add changes to this tab that will be seen only by you. Learn more ›
×
You can save this tab as Personal to edit and correct it or add notes. All changes will be seen only by you. Learn more »
launch autoscroll
font size
0
reset
transpose
0
reset
display chords
guitar tuner
edit
Autoscroll
slow
fast
+/-
esc
set tempo
stop
Author
Difficulty
Strumming
There is no strumming pattern for this song yet. and get +5 IQ
Hey guys, so this is the tab/chords for Anxiété by Naive Thieves. Lovely song. If any of you have any
questions, suggestions, or corrections, feel free to comment. If you find a mistake 
please tell me. Maybe I'll
tab out some other Naive Thieve songs if you guys like this one? We'll see. I don't 
usually write out tabs for
songs, but I really love Naive Thieves, so I decided to give this a shot.

I suggest that ALL chords be played barred, and the Cm should slide to the Fm on the 8th fret.

[Intro Riff]

e|----------------------------------------    -16-13-------16-13-------16-13---------------------------|
B|--9-6-----9-6-----9-6-------------------    -------16-13-------16-13-------16-13---------------------|
G|------8-5-----8-5-----8-5--------------- OR -------------------------------------15-15-15-15-15-13---|
D|--------------------------8-8-8-8-8-6---    ------------------------------------------------------15-|
A|--------------------------------------8-    ---------------------------------------------------------|
E|----------------------------------------x2  ---------------------------------------------------------|x2

[Verse]

G#                Cm Fm      G#     Cm Fm
I'm having trouble finding sleep
        G#                                 Cm   Fm  
G#   Cm Fm
and i'm worried sick that all I want ain't meant to be


[Chorus]

     Eb Cm   Fm   C#        C#m    G#
well I wanna see everything that I believe


[Intro Riff]


[Verse 2]

G#                                                 Cm     Fm
Thinking for a second that I could let it all roll off my back
    G#                                            Cm    Fm
and I would not be feeling like i'm gonna have a heart attack
G#
even if my anxious eyes
                      Cm     Fm
wrote every line just like i lied
G#                             Cm Fm
would the ending get any better


[Chorus]

     Eb Cm   Fm  C#         C#m    G#
well I wanna see everything that I believe
Eb    Cm       Fm     C#     C#m  G#
maybe its just me but I love some certainty
Eb Cm   Fm  C#                C#m
I wanna see everything that I believe...


[Bridge]

A#m        Fm
can't go on thinking
A#m      Fm                   D#m              Fm
i've got control of what's to come i've better stop
A#m    Fm
making plans around these
A#m         Fm               D#m            Fm
counting on them cuz I don't know she don't know
        D#m         G#
I don't know nobody knows


[Outro]

e|-9-6---- 9-6-----9-6---------------------9-6---- 9-6-----9-6------------------|
B|-----9-6-----9-6-----9-6---------------------9-6-----9-6-----9-6--------------|
G|-------------------------8-8-8-8-8-6-----------------------------8-8-8-8-8b---|
D|-------------------------------------8----------------------------------------|
A|------------------------------------------------------------------------------|
E|------------------------------------------------------------------------------|

e|-9-6---- 9-6-----9-6---------------------9-6---- 9-6-----9-6------------------|
B|-----9-6-----9-6-----9-6---------------------9-6-----9-6-----9-6--------------|
G|-------------------------8-8-8-8-8-6-----------------------------8-8-8-8-8b---|
D|-------------------------------------8----------------------------------------|
A|------------------------------------------------------------------------------|
E|------------------------------------------------------------------------------|



************************************

| x  Dead note
| b  Bend 

************************************

            
            
Suggest correction
Creating personal tab
Creating personal tab
You can edit any tab online and save it as your Personal.

You can edit, replace or remove any tab part or add personal notes – all changes will be seen only by you.

Personal tabs can be accessed anytime from any device, even offline.
Learn more »
Give kudos to tab author, rate the tab!
1 2 3 4 5
comments
print report bad tab
guest
You may want to rate the tab now too:
select rating
Wanna post a correction for this tab? Suggest correction