Oops, an error
Loading. Please wait.

Always Something There To Remind Me Chords

version 1
version 1

Whole song

55,455 views 99 this week
4 commentsread comments
1 2 3 4 5
x 17
add to favorites
launch autoscroll
font size
0
reset
transpose
0
reset
simplify chords
display chords
guitar tuner
Autoscroll
slow
fast
+/-
esc
set tempo
stop
Help us to improve Ultimate-Guitar.com Take our survey!
×
Difficulty
novice
Always Something There To Remind Me- Naked Eyes
 

[Intro]
   D                 C                 G/B               G
e|-----------------|-----------------|-----------------|-----------------|
B|-----3---5-------|-----------------|-----------------|-----------------|
G|-------------3---|---------4---5---|-----4-----------|-----------------|
D|-----------------|-4---5-----------|---------5---2---|-5---4-----------|
A|-----------------|-----------------|-----------------|---------5---3---|
E|-----------------|-----------------|-----------------|-----------------|



D       A/C#           C                   G              Bb
I walk along the city streets you used to walk along with me,
D         A/C#           C                G
And every step I take reminds me of just how we used to be.
            G     D/F#
Oh, how can I forget you, girl
Em
   When there is


   D                 G/D              D
e|----------------------------------|--------------------------|
B|----------------------------------|-----3--------------------|
G|----------------------------------|---------4----2-----------|
D|----------------------------------|---------------------4----|
A|----------------------------------|--------------------------|
E|----------------------------------|--------------------------|
  always something there to remind me



D            A/C#            C               G                 Bb
When shadows fall, I pass a small cafe where we would dance at night
D            A/C#           C              G
And I can't help recalling how it felt to kiss and hold you tight

            G     D/F#        Em             D                G/D

Oh, how can I forget you, girl when there is always something there to
D
remind me
Always something there to remind me


      F#m      Bm                   G        A
I was born to love you, and I will never be free
                    D
You'll always be a part of me



If you should find you miss the sweet
And tender love we used to share
Just go back to the places where we used to go,
And I'll be there

Oh, how can I forget you, girl
When there is always something there to remind me
Always something there to remind me

I was born to love you, and I will never be free
You'll always be a part of me

'Cause there is always something there to remind me


Javier Molina 
javier.molinachi@gmail.com
Suggest correction
comments
print report bad tab
4 comments total. Showing first comments.
0 reply
t0oicy4u 10 Aug 21, 2007 09:07 AM

....i guess its ok but i dnt get it

0 reply
yopip_05 248 Dec 23, 2014 02:04 AM

just a little tweak in some notes and lets enjoy

INTRO
D C G/B G
e|-----------------|-----------------|-----------------|-----------------|
B|-----3---5-------|-----------------|-----------------|-----------------|
G|-------------5---|---------4---5---|-----4-----------|-----------------|
D|-----------------|----4------------|---------5---2---|-5---4-----------|
A|-----------------|-----------------|-----------------|---------3---5---|
E|-----------------|-----------------|-----------------|-----------------|

0 reply
d.a.pickholtz 10 Jun 25, 2015 07:07 AM, edited at 07:07 am

INTRO:

e|-----------------|-----------------|-----------------|-----------------|
B|-----3---5-------|-----------------|-----------------|-----------------|
G|-------------5---|---------4---5---|-----4-----------|-----------------|
D|-0---------------|-4---5-----------|---------5---2---|-5---4-----------|
A|-----------------|-3---------------|-2---------------|-4-------3---4---|
E|-----------------|-----------------|-----------------|-----------------|

guest
You may want to rate the tab now too:
select rating
Wanna post a correction for this tab? Suggest correction