Oops, an error
Loading. Please wait.

Este Es El Tiempo tab

version 1
version 1

Whole song

912 views 3 this week
no commentswrite comment
1 2 3 4 5
3 more votes to show rating
add to favorites
×
Save as Personal and add changes to this tab that will be seen only by you. Learn more ›
×
You can save this tab as Personal to edit and correct it or add notes. All changes will be seen only by you. Learn more »
launch autoscroll
font size
0
reset
how to read this tab
guitar tuner
edit
Autoscroll
slow
fast
+/-
esc
set tempo
stop
*bueno amigos este es mi arreglo de esta
 cancion,espero les guste y
  Revisenla bien antes de calificarla por favor,
 y escuchen bien los tiempos
  Dios los bendiga*
intro
*Acustic guitar
b----------------8-8p-9-----9-8---
g---------8 p 10--------------------
d--8 s-10---------------10---------

e-------------------------------------
b--------------------8-9-9-s-11---
g--10-8------8 p-10--------------------
d--------10---------------------------

b-----11-9-8----------------8-11-9-
g--8---------10-----8-p-10-----------
d---------------10-------------------

b--9-8--------------------8-p-9-9-8-8-----8-
g--------10-8------8-p-10-------------10--
d---------------10-------------------------

*electric guitar
e---------------15-15-16------
b----------18------------------
g--15-p-17-----------------17--

e--16-15----------------15-15-16-s-18-
b---------18-16----18-----------------
g---------------17----------------------

e----18-16-15-----------15-15-p-16-16-15--
b-16----------18----18--------------------
g----------------17--------------------

e-15-15-p-16-16-15-----------------------
b-------------------18-17-----19-------
g--------------------------17----18--

e-15-p-16-16-15-15--------------------------
b-------------------19-19-18-18-14-14-13-13--
g---------------------------------------------

g---12-15-13-12-13------
d-------------------15-

armonia acustic guitar Fm  D#  C#  C  C#
va con la guitarra electrica
Fm                            Bbm
nunca olvides a que Dios te llamo
              C#               G#
 de donde te saco y que te prometio
  Fm                         Bbm
Cosas grandes Dios tiene para ti,
                C#                G#
,hoy debes tu vivir creyendo solo asi
   Bbm                         Fm
Prepárate a conquistar,a las naciones
                     C#
alcanzar,a declarar palabra de fe

                 D#
Y al cautivo proclamar
             Fm
Este es el tiempo de ver lo
                           D#
que Dios tiene hoy para tu vida

Y hablar palabras para que cobren
  C#                        C
 vida y declarar que así sucederá
             Fm
Este es el tiempo degritar fuerte
                         D#
 que los muros hoy se caigan
                                     C#
Y hablarle a la pena y que brote el agua
                      C
y declarar que asi sucedera
Puente 1
*electric guitar
e--------------15-15-16------
b-----------18---------------
g--15-p-17---------------17--

e-16-15---------------15-15-16-s-18-
b-------18-16----18------------------
g-------------17-----------------------

e----18-16-15------------15-15-p-16-16-15--
b-16-----------18----18--------------------
g-----------------17--------------------

e--15-15-p-16-16-15----------------------
b---------------------18-17-----19-------
g----------------------------17----18--

e-15-p-16-16-15-15---
b------------------19-19-18-18-14-14-13-13--
g----------------------------------------

g---12-15-13-12-13------
d-----------------------15-

-armonía acustic guitar- Fm  D#  C#  C  C#m
va con la guitarra electrica-

Estrofa y coro de nuevo y luego del
coro viene esto

*Puente 2

 C#                           D#
Tiempo de levantar los muros caidos
                           C#
 y poder aquello que has perdido
                               D#
Tiempo de mirarte como Dios te mira

*Modula*

     F#m  D  E   F#m
// Este  es  el tiempo de ver lo que Dios
                              E
/ tiene hoy para tu vida y hablar
                                   D
   Palabras para que otros cobren vida
                       C#
  y declarar que asi sucedera
               F#m
   Este es el tiempo de gritar que
                               E
   los muros hoy se caigan y hablarle
                            D
 a la pena y que brote el agua
                       C#
y declarar que asi sucedera//

***si desean meten esta progresión en
F#m  D  E  F#m  ***
Este  es el tiempo?..
*Final
b-6-p-7-6-----------------6-6-p-7-6-----------------
g--------7-6-p-7-6--6-p-9----------7-7-6-6-p-7-6------
d------------------9----------------------------9-8-6-
a-----------------------------------------------------9
*2da guitar  D  C#  F#m  C#  F#m*
Suggest correction
Creating personal tab
Creating personal tab
You can edit any tab online and save it as your Personal.

You can edit, replace or remove any tab part or add personal notes – all changes will be seen only by you.

Personal tabs can be accessed anytime from any device, even offline.
Learn more »
Give kudos to tab author, rate the tab!
1 2 3 4 5
comments
print report bad tab
guest
Wanna post a correction for this tab? Suggest correction