Oops, an error
Loading. Please wait.

These Boots Are Made For Walkin Bass

version 2
version 2

Whole song

723 views 30 this week
no commentswrite comment
1 2 3 4 5
3 more votes to show rating
add to favorites
×
Save as Personal and add changes to this tab that will be seen only by you. Learn more ›
×
You can save this tab as Personal to edit and correct it or add notes. All changes will be seen only by you. Learn more »
save as personal
new!
launch autoscroll
font size
0
reset
guitar tuner
Autoscroll
slow
fast
+/-
esc
set tempo
stop
Author
Difficulty
novice
-------------------------------------------------------------------------------
               THESE BOOTS ARE MADE FOR WALKIN' - Nancy Sinatra
-------------------------------------------------------------------------------
Tabbed by: Dan Hardy
E-mail: dhardy50@hotmail.co.uk

Tuning: EADG

Intro
G|---------------------------------------------|
D|-15-15-14-14-13-13-12-12-11-11-10-10-9-9-8-8-|
A|---------------------------------------------|
E|---------------------------------------------| 

G|----------------------|
D|----------------------|
A|----------------------|
E|-1-----1-----1-----1--|

Verse
G|---------|
D|---------|
A|---------|
E|-1---1-1-| x8

G|---------|
D|---------|
A|-1---1-1-|
E|---------| x4

G|---------|
D|---------|
A|---------|
E|-1---1-1-| x4  

Chorus
G|-----------------------------------------------------|
D|-----------------------------------------------------|
A|-----------------------------------------------------|
E|-4--4--4-3-1--1--1-3-4--4--4-3-1--1--1-3-4--4--4-3-1-|

G|---------------------------------------------|
D|-15-15-14-14-13-13-12-12-11-11-10-10-9-9-8-8-|
A|---------------------------------------------|
E|---------------------------------------------| 

G|----------------------|
D|----------------------|
A|----------------------|
E|-1-----1-----1-----1--|

Verse
G|---------|
D|---------|
A|---------|
E|-1---1-1-| x8

G|---------|
D|---------|
A|-1---1-1-|
E|---------| x4

G|---------|
D|---------|
A|---------|
E|-1---1-1-| x4

Chorus
G|-----------------------------------------------------|
D|-----------------------------------------------------|
A|-----------------------------------------------------|
E|-4--4--4-3-1--1--1-3-4--4--4-3-1--1--1-3-4--4--4-3-1-|

G|---------------------------------------------|
D|-15-15-14-14-13-13-12-12-11-11-10-10-9-9-8-8-|
A|---------------------------------------------|
E|---------------------------------------------|

G|----------------------|
D|----------------------|
A|----------------------|
E|-1-----1-----1-----1--|

Verse
G|---------|
D|---------|
A|---------|
E|-1---1-1-| x8

G|---------|
D|---------|
A|-1---1-1-|
E|---------| x4

G|---------|
D|---------|
A|---------|
E|-1---1-1-| x4

Chorus
G|-----------------------------------------------------|
D|-----------------------------------------------------|
A|-----------------------------------------------------|
E|-4--4--4-3-1--1--1-3-4--4--4-3-1--1--1-3-4--4--4-3-1-|

G|---------------------------------------------|
D|-15-15-14-14-13-13-12-12-11-11-10-10-9-9-8-8-|
A|---------------------------------------------|
E|---------------------------------------------|

"Are you ready boots?!"
G|----------------------|
D|----------------------|
A|----------------------|
E|-1-----1-----1-----1--|

Outro "Start walkin'!"
G|-------------|
D|-3-----1-2-3-|
A|-----3-------|
E|---1---------| x(till fade out)

| /  slide up
| \  slide down
| h  hammer-on
| p  pull-off
| ~  vibrato
| +  harmonic
| x  Mute note
===============================================================================
Suggest correction
Give kudos to tab author, rate the tab!
1 2 3 4 5
comments
print report bad tab
guest
You may want to rate the tab now too:
select rating
Wanna post a correction for this tab? Suggest correction