Oops, an error
Loading. Please wait.

These Boots Are Made For Walkin chords

version 2
version 2

Whole song

Interactive

8,124 views 84 this week
no commentswrite comment
1 2 3 4 5
x 10
add to favorites
×
Save as Personal and add changes to this tab that will be seen only by you. Learn more ›
×
You can save this tab as Personal to edit and correct it or add notes. All changes will be seen only by you. Learn more »
launch autoscroll
font size
0
reset
transpose
0
reset
simplify chords
display chords
guitar tuner
edit
Autoscroll
slow
fast
+/-
esc
set tempo
stop
Author
Difficulty
Strumming
There is no strumming pattern for this song yet. and get +5 IQ
Song: These boots are made for walkin'
Artist: Nancy Sinatra
Composer: Lee Hazlewood

Tabbed by DJ ('DiddyD' on ultimateGuitar.com)
22nd May 2014

E  = 022100    G    = 320033    E7 = 022130
Em = 022000    G *  = 3xxxxx    A7 = x02223
A  = x02220    G/F# = 2xxxxx    E6 = 022120
Am = x02210    E *  = 0xxxxx    A6 = x02222

****************************************************************************

[Intro]
      E      (E/Eb)  (E/D)   (E/Db)   (E/C) (E/B) (E/Bb) (E/A)
e |---------------------------------|---------------------------|
B |---------------------------------|---------------------------|
G |---------------------------------|---------------------------|
D |---------------------------------|---------------------------|
A |---------------------------------|---------------------------|
E |---12-12---11-11---10-10---9-9---|---8-8---7-7---6-6---5-5---|


        E  Em E        E  Em E           E  Em E        E  Em E
e |-----0--0-----0-----0--0-----0--|-----0--0-----0-----0--0-----0--|
B |-----0--0-----0-----0--0-----0--|-----0--0-----0-----0--0-----0--|
G |-----1--0-h1--1-----1--0-h1--1--|-----1--0-h1--1-----1--0-h1--1--|
D |-----2--------------2-----------|-----2--------------2-----------|
A |-----2--------------2-----------|-----2--------------2-----------|
E |--0--------------0--------------|--0--------------0--------------|


[Verse 1]
 E        Em    E              Em      E          Em E   Em E
You keep say - ing you've got some - thing for me,
 E        Em    E        Em     E      Em E   Em E
Something you call love, but confess,
 A           Am     A               Am           A              Am  A   Am A
You've been mess - in' where you shouldn't 'ave been a - messin',
          E     Em   E          Em   E         Em  E   Em  E
And now someone else is gettin' all your best!


[Chorus]
       G        G *  G/F#  E      E *  G/F#  G          G *  G/F#   E
These boots are made for walkin',      and that's just what they'll do,
E * G/F#   G            G *  G/F#   E                                E
          One of these days  these boots are gonna ...walk all over you!


[Link]
       E    (E/Eb)  (E/D)   (E/Db)   (E/C) (E/B) (E/Bb) (E/A)
e |---------------------------------|---------------------------|
B |---------------------------------|---------------------------|
G |---------------------------------|---------------------------|
D |---------------------------------|---------------------------|
A |---------------------------------|---------------------------|
E |---12-12---11-11---10-10---9-9---|---8-8---7-7---6-6---5-5---|


        E  Em E        E  Em E           E  Em E        E  Em E
e |-----0--0-----0-----0--0-----0--|-----0--0-----0-----0--0-----0--|
B |-----0--0-----0-----0--0-----0--|-----0--0-----0-----0--0-----0--|
G |-----1--0-h1--1-----1--0-h1--1--|-----1--0-h1--1-----1--0-h1--1--|
D |-----2--------------2-----------|-----2--------------2-----------|
A |-----2--------------2-----------|-----2--------------2-----------|
E |--0--------------0--------------|--0--------------0--------------|


[Verse 2]
E7                                     E
You keep lying, when you ought to be truthin',
     E7
And you keep losin', when you outta not bet,
A7
You keep samin', when you outta be changin',
            E7                                       E
Now what's right is right, but you ain't been right yet!


[Chorus]
       G        G *  G/F#  E      E *  G/F#  G          G *  G/F#   E
These boots are made for walkin',      and that's just what they'll do,
E * G/F#   G            G *  G/F#   E                                E
          One of these days  these boots are gonna ...walk all over you!


[Link]
       E    (E/Eb)  (E/D)   (E/Db)   (E/C) (E/B) (E/Bb) (E/A)
e |---------------------------------|---------------------------|
B |---------------------------------|---------------------------|
G |---------------------------------|---------------------------|
D |---------------------------------|---------------------------|
A |---------------------------------|---------------------------|
E |---12-12---11-11---10-10---9-9---|---8-8---7-7---6-6---5-5---|


        E  Em E        E  Em E           E  Em E        E  Em E
e |-----0--0-----0-----0--0-----0--|-----0--0-----0-----0--0-----0--|
B |-----0--0-----0-----0--0-----0--|-----0--0-----0-----0--0-----0--|
G |-----1--0-h1--1-----1--0-h1--1--|-----1--0-h1--1-----1--0-h1--1--|
D |-----2--------------2-----------|-----2--------------2-----------|
A |-----2--------------2-----------|-----2--------------2-----------|
E |--0--------------0--------------|--0--------------0--------------|


[Verse 3]
E7        E6    E7    E7          E6     E7         E7 E6 E7   E7 E6 E7
You keep play - in', where you shouldn't be playin',
     E7       E6     E7      E7          E6   E7        E7 E6 E7   E7 E6 E7
And you keep think - in' ...that you'll never get burnt,       ...hah!
A7      A6   A7    A7       A6  A7    A7   A6  A7   A7  A6  A7
I just found me a brand new box of matches,        yeah,
     E7       E6  E7       E7        E6  E7   E7  E6  E7    E7 E6  E7
And what you know,    you ain't had time to learn!


[Chorus]
       G        G *  G/F#  E      E *  G/F#  G          G *  G/F#   E
These boots are made for walkin',      and that's just what they'll do,
E * G/F#   G            G *  G/F#   E                                E
          One of these days  these boots are gonna ...walk all over you!


[Link]
       E   (E/Eb)  (E/D)   (E/Db)   (E/C) (E/B) (E/Bb) (E/A)
e |---------------------------------|---------------------------|
B |---------------------------------|---------------------------|
G |---------------------------------|---------------------------|
D |---------------------------------|---------------------------|
A |---------------------------------|---------------------------|
E |---12-12---11-11---10-10---9-9---|---8-8---7-7---6-6---5-5---|


[Coda]
E  Em        E           Em  E    Em     E
   Are you ready boots?          Start walkin'!


                E                E                E                E7
e |-------------0--|-------------0--|-------------0--|-------------0--||
B |-------------0--|-------------0--|-------------0--|-------------3--||
G |-------------1--|-------------1--|-------------1--|-------------1--||
D |----0-h1-2---2--|----0-h1-2---2--|----0-h1-2---2--|----0-h1-2---2--||
A |--2----------2--|--2----------2--|--2----------2--|--2----------2--||
E |-------------0--|-------------0--|-------------0--|-------------0--||

            
            
Suggest correction
Creating personal tab
Creating personal tab
You can edit any tab online and save it as your Personal.

You can edit, replace or remove any tab part or add personal notes – all changes will be seen only by you.

Personal tabs can be accessed anytime from any device, even offline.
Learn more »
comments
print report bad tab
guest
You may want to rate the tab now too:
select rating
Wanna post a correction for this tab? Suggest correction