Oops, an error
Loading. Please wait.

Relicrio Chords

102 views 1 this week
no commentswrite comment
1 2 3 4 5
please rate
add to favorites
launch autoscroll
font size
0
reset
transpose
0
reset
simplify chords
display chords
guitar tuner
Autoscroll
slow
fast
+/-
esc
set tempo
stop
Help us to improve Ultimate-Guitar.com Take our survey!
×
Author
Difficulty
novice
Tom: G
                

(intro)

D:
  e|---0h2-0-0-0-0h2-0-0-0-0h2----------------|
  B|---3---3-3-3-3---3-3-3-3------------------|
  G|---2---2-2-2-2---2-2-2-2------------------|
  D|-0----------------------------------------|
  A|------------------------------------------|
  E|------------------------------------------|

D7:
  e|---0h2-0-0-0-0h2-0-0-0-0h2----------------|
  B|---1---1-1-1-1---1-1-1-1------------------|
  G|---2---2-2-2-2---2-2-2-2------------------|
  D|-0----------------------------------------|
  A|------------------------------------------|
  E|------------------------------------------|

D6:
  e|---0h2-0-0-0-0h2-0-0-0-0h2----------------|
  B|---3---3-3-3-3---3-3-3-3------------------|
  G|---4---4-4-4-4---4-4-4-4------------------|
  D|-0----------------------------------------|
  A|------------------------------------------|
  E|------------------------------------------|

D5+:
  e|---0h2-0-0-0-0h2-0-0-0-0h2----------------|
  B|---3---3-3-3-3---3-3-3-3------------------|
  G|---3---3-3-3-3---3-3-3-3------------------|
  D|-0----------------------------------------|
  A|------------------------------------------|
  E|------------------------------------------|

      D
É uma índia com colar
A tarde linda que não quer se por
Dançam as ilhas sobre o mar
Sua cartilha tem o "a" de que cor?
Em                     Em/F# G
  O que esta acontecendo?
                     D
O mundo esta ao contrário e ninguém reparou
Em                     Em/F# G
  O que esta acontecendo?
                        D
Eu estava em paz quando   você chegou

            D
E são dois cílios em pleno ar
Atrás do filho vem o pai e o avô
Como um gatilho sem disparar
Você invade mais um lugar
             Em
Onde eu não vou
                   Em/F#    G
O que você esta fazendo?
                  D
Milhões de vasos sem nenhuma flor
Em                      Em/F#  G
  O que você está fazendo?
                    D
Um relicário imenso   desse amor

(passagem)

(parte 1)
  e|------------------------------------------|
  B|------------------------------------------|
  G|------------------------------------------|
  D|-------------0-2-0-2-4--------------------|
  A|-0-0-2-3-2-3------------------------------|
  E|------------------------------------------|

(parte 2)
 G:
(parte 3)
               D/F#
  e|----------------2-2-2-|
  B|----------------3-3-3-|
  G|----------------2-2-2-|
  D|----------------0-0-0-|
  A|-0h2---0--------0-0-0-|
  E|-----3-----2----------|

(parte 4)
  e|------------------------------------------|
  B|------------------------------------------|
  G|------------------------------------------|
  D|-------------0-------0-2-0-2-4------------|
  A|-0-0-0-2-0-2---3-2-3----------------------|
  E|------------------------------------------|

(parte 5)
 G:   (2x)

(repetição)
         D
Corre a lua porque longe vai?
Sobe o dia tão vertical
O horizonte anuncia com o seu vitral
Que trocaria a eternidade
           Em
Por esta noite
                   Em/F#  G
Porque esta amanhecendo?
                  D
Peço o contrário ver o sol se por
Em                      Em/F# G
  Porque esta amanhecendo?
                          D
Se não vou beijar seus lábios
Quando você se for

            D
Quem nesse mundo faz o que há durar
Pura semente dura o futuro amor
Eu sou a chuva pra você secar
                                    Em
Pelo zunido da suas asas você me falou
                    Em/F#  G
O que  você esta dizendo?
                          D
Milhões de frases sem nenhuma cor
Em                      Em/F#  G
  O que você está dizendo?
                    D
Um relicário imenso   desse amor

(final)

(ornamentações)
D:
  e|---0h2-0-0-0-0h2-0-0-0-0h2----------------|
  B|---3---3-3-3-3---3-3-3-3------------------|
  G|---2---2-2-2-2---2-2-2-2------------------|
  D|-0----------------------------------------|
  A|------------------------------------------|
  E|------------------------------------------|

D/C:
  e|---0h2-0-0-0-0h2-0-0-0-0h2----------------|
  B|---3---3-3-3-3---3-3-3-3------------------|
  G|---2---2-2-2-2---2-2-2-2------------------|
  D|------------------------------------------|
  A|-3----------------------------------------|
  E|------------------------------------------|

G/B:
  e|---0h2-0-0-0-0h2-0-0-0-0h2----------------|
  B|---3---3-3-3-3---3-3-3-3------------------|
  G|---0---0-0-0-0---0-0-0-0------------------|
  D|------------------------------------------|
  A|-2----------------------------------------|
  E|------------------------------------------|

Gm/Bb:
    e|---0h2-0-0-0-0h2-0-0-0-0h2----------------|
    B|---3---3-3-3-3---3-3-3-3------------------|
    G|---3---3-3-3-3---3-3-3-3------------------|
    D|------------------------------------------|
    A|-1----------------------------------------|
    E|------------------------------------------|

A7                      C
  O que você está dizendo?
A7                      C
  O que você esta fazendo?
                         D      D/C G/B Gm/Bb
Por que que está fazendo assim
             D      D/C G/B Gm/Bb  D
Está fazendo assim
Suggest correction
Give kudos to tab author, rate the tab!
1 2 3 4 5
comments
print report bad tab
guest
You may want to rate the tab now too:
select rating
Please do not post tabs as comments. Select "correction" instead!