Oops, an error
Loading. Please wait.

Hysteria Acoustic tab

by Nano
10,846 views 78 this week
4 commentsread comments
1 2 3 4 5
x 8
add to favorites
×
Save as Personal and add changes to this tab that will be seen only by you. Learn more ›
×
You can save this tab as Personal to edit and correct it or add notes. All changes will be seen only by you. Learn more »
launch autoscroll
font size
0
reset
how to read this tab
guitar tuner
edit
Autoscroll
slow
fast
+/-
esc
set tempo
stop
-------------------------------------------------------------------------------
                   Hysteria Acoustic - NANO
-------------------------------------------------------------------------------
Tabbed by: azndesserts
Tuning: EADGBe (Standard)

Tabbed from: http://www.youtube.com/watch?v=Pk3EUwBzDuw
Attempted to tab out the song by ear, it's not perfect.
Couldn't find a tab on this song and that surprised me.

Capo: 1st Fret
General Chord Progression (relative to capo): G A Bm7 A

[G]
e|--3--|
B|--3--|
G|--0--|
D|--0--|
A|--2--|
E|--3--|

[A]
e|--0--|
B|--2--|
G|--2--|
D|--2--|
A|--0--|
E|-----|

[Bm7]
e|--2--|
B|--3--|
G|--2--|
D|--4--|
A|--2--|
E|-----|

[0:00]
e|-5-2---0-2---5-2---0-2---0-----0-2-----5-(5)------|
B|-3---3-------3---3---------3-----------3----(3)---|
G|-----0-----------0-----------2-------2-2----------| (x2)
D|-------------------------4-----4---4---4----------|
A|-------------0------------------------------------|
E|-3------------------------------------------------|

[0:18]
e|--------------------------------------------------|
B|-----3-----------2-----------3-----------2--------|
G|-----0---0-------2---2-------2---2-------2---2----|
D|---0---0-------2---2-------4---4-------2---2------|
A|-------------0-----------2-----------0------------|
E|-3------------------------------------------------|

[0:28]
e|-----------------------------------------/10-9-------------|
B|-----3-----------2-----------3-----------------10-8--------|
G|-----0---0-------2---2-------2---2------------------11-----|
D|---0---0-------2---2-------4---4-------2------------0------|
A|-------------0-----------2-----------0---------------------|
E|-3---------------------------------------------------------|

[0:38]
e|--------------------------------------------------|
B|-----3-----------2-----------3-----------2--------|
G|-----0---0-------2---2-------2---2-------2---2----|
D|---0---0-------2---2-------4---4-------2---2------|
A|-------------0-----------2-----------0------------|
E|-3------------------------------------------------|

[0:48]
e|-----------------------------------------5--------|
B|-----3-----------2-----------3-----------2--------|
G|-----0---0-------2---2-------2---2-------2--------|
D|---0---0-------2---2-------4---4-------2----------|
A|-------------0-----------2-----------0------------|
E|-3------------------------------------------------|

[0:58]
Strumming      : { G A Bm7 A } (x3)
Strumming Outro: G A (A is strummed 5 times)

[1:30]
e|-5-2---0-2---5-2---0-2---0-----0-2-----5-(5)------|
B|-3---3-------3---3---------3-----------3----(3)---|
G|-----0-----------0-----------2-------2-2----------| (x2)
D|-------------------------4-----4---4---4----------|
A|-------------0------------------------------------|
E|-3------------------------------------------------|

[1:40]
e|-------------------------------------0-5-2-0------|
B|-----3-----------2-----------3-------2-2----------|
G|-----0---0-------2---2-------2---2---2------------|
D|---0---0-------2---2-------4---4-----2------------|
A|-------------0-----------2------------------------|
E|-3------------------------------------------------|

[1:50]
e|-----------------------------------------0--------|
B|-----3-----------2-----------3-----------2--------|
G|-----0---0-------2---2-------2---2-------2--------|
D|---0---0-------2---2-------4---4-------2-2--------|
A|-------------0-----------2-----------0------------|
E|-3------------------------------------------------|

[2:00]
Strumming Intro: G (G is strummed 3 times)
Strumming      : { G A Bm7 A } (x3)
Strumming Outro: G A (A is strummed 5 times but blends into solo)

[2:35]
[SOLO] (my interpretation hopefully someone else can make a better one)
e|-/10-p9---------------------------------------|
B|--------10-p8---------------------------------|
G|--------------11-9-11~--------7-h9-7----------|
D|-------------------------7-h9-----------------|
A|----------------------------------------------|
E|----------------------------------------------|

[2:40]
e|----------------------------------------------|
B|-----------------------/10-7------------------|
G|-7-p6--------------7-7------------------------|
D|------9-p7-------7----------------------------|
A|------------9-p7------------------------------|
E|----------------------------------------------|

[2:45]
e|-------------14~---------------------5-10-10-p9-----------------9-10----|
B|-15-15-15---------------15-17b-15~---7-10-------10-----------10---10----|
G|----------16-----16-h19--------------7-12----------11-p9-h11------11----|
D|-------------------------------------7-12------------------------(14)---|
A|-------------------------------------5-10-------------------------------|
E|------------------------------------------------------------------------|
[END SOLO]

[2:55]
e|--------------------------------------------------|
B|-----3-----------2-----------3-----------2--------|
G|-----0---0-------2---2-------2---2-------2---2----|
D|---0---0-------2---2-------4---4-------2---2------|
A|-------------0-----------2-----------0------------|
E|-3------------------------------------------------|

[3:05]
e|--------------------------------------------------|
B|-----3-----------2--------------------------------|
G|-----0---0-------2---2----------------------------|
D|---0---0-------2---2------------------------------|
A|-------------0-----------2------------------------|
E|-3------------------------------------------------|
(blends to strumming Bm7 then A)

[3:15]
Strumming      : G A Bm7 A 
Strumming Outro: G A

[3:30]
[Outro] { G A Bm7 A } (x2) 
       : G~

************************************

| (n)  Ghost note
| h    Hammer-on
| p    Pull-off
| b    Bend
| /    Slide up
| ~    Vibrato

************************************
Suggest correction
Creating personal tab
Creating personal tab
You can edit any tab online and save it as your Personal.

You can edit, replace or remove any tab part or add personal notes – all changes will be seen only by you.

Personal tabs can be accessed anytime from any device, even offline.
Learn more »
comments
print report bad tab
4 comments total. Showing first comments.
-1 reply
diemen0001 10 Jun 10, 2016 03:06 AM, edited at 07:14 am

seems that this will be bettere|-5-2---0-2---5-2---0-2---0-----0-2-----5-(5)------|B|-3---3-------3---3---------3-----------3----(3)---|G|-----0-----------0-----------2-------2-2----------| (x2)D|-------------------------4-----4---4---4----------|A|-0-----------0------------------------------------|E|(3)-----------------------------------------------|though not so sure

0 reply
diemen0001 10 Jun 10, 2016 03:15 AM

e|-5-2---0-2---5-2---0-2---0-----0-2-----5-(5)------|
B|-3---3-------3---3---------3-----------3----(3)---|
G|-----0-----------0-----------2-------2-2----------| (x2)
D|-------------------------4-----4---4---4----------|
A|-------------0------------------------------------|
E|-3------------------------------------------------|

0 reply
cantcant 10 Jul 14, 2016 11:27 AM

I think this is more accurate.
bracketed is optional
v v-------------------v
e|-5-2---0-2---5-2---0-2---0-----0-2-----5-(5)------|
B|-3---3-------3---3---------3-----------2----(2)---|
G|-----0--------------------------(2)--2-2----------| (x2)
D|-----------------2---------4---4---4---4----------|
A|-------------0-----------2---2--------------------|
E|-3------------------------------------------------|

guest
You may want to rate the tab now too:
select rating
Wanna post a correction for this tab? Suggest correction