Oops, an error
Loading. Please wait.

Next To Kin To Chaos Tab

234 views 1 this week
no commentswrite comment
1 2 3 4 5
3 more votes to show rating
add to favorites
launch autoscroll
font size
0
reset
how to read this tab
guitar tuner
×
Best way to learn
"Next To Kin To Chaos"
Autoscroll
slow
fast
+/-
esc
set tempo
stop
NOTE: Riff 5 is quietly played with Riff 4 listen to the cd i almost
missed it

Tunning E B G D A E

Riff 1
|-------------------------------------------------------------------|
|-------------------------------------------------------------------|
|-------------------------------------------------------------------|
|-------------------------------------------------------------------|
|-3-3-3-3-3-7\6\5---------------------------------------------------|
|-------------------------------------------------------------------|

Riff 2
|-------------------------------------------------------------------|
|-------------------------------------------------------------------|
|-------------------------------------------------------------------|
|-------------------------------------------------------------------|
|-----------5-4-4-4-4-4-3-3-3-3-3-4-4-4-4-4-4-----------------------|
|-7-7-7-7-7---------------------------------------------------------|

Riff 3
|-------------------------------------------------------------------|
|-------------------------------------------------------------------|
|-------------------------------------------------------------------|
|-------------------------------------------------------------------|
|-4-5-4-4-3-4-5-4-4-3-4-5-4-4-3-4-5-4-4-3--9--8--9--8---------------|
|-------------------------------------------------------------------|

Riff 4
|-------------------------------------------------------------------|
|-------------------------------------------------------------------|
|-------------------------------------------------------------------|
|-------------------------------------------------------------------|
|-000-11-00-11-00-11-00-11-11/12/13---------------------------------|
|-------------------------------------------------------------------|

Riff 5
|-------------------------------------------------------------------|
|-------------------------------------------------------------------|
|-------------------------------------------------------------------|
|-------------------------------------------------------------------|
|-3-3-3-3-3-5-5-6-6-6-6---------------------------------------------|
|-------------------------------------------------------------------|

Riff 6
|-------------------------------------------------------------------|
|-------------------------------------------------------------------|
|-------------------------------------------------------------------|
|-------------------------------------------------------------------|
|-9--8--9--8--11--10--11--10----------------------------------------|
|-------------------------------------------------------------------|

Riff 7
|-------------------------------------------------------------------|
|-------------------------------------------------------------------|
|-------------------------------------------------------------------|
|-------------------------------------------------------------------|
|-5-5-5-5-6-6-------6-6-6-5-5-5-5-----------------------------------|
|-------------10-10-------------------------------------------------|


Order:
Riff 1
Riff 2
Riff 1
Riff 2
Riff 3
Riff 4, Riff 5
Riff 5
Riff 4, Riff 5
Riff 5
Riff 4, Riff 5
Riff 5
Riff 4, Riff 5
Riff 5
Riff 6
Riff 1 x6
Riff 2 x2
Riff 3 x2
Riff 4 x4
Riff 5 x3
Riff 7 x2 or 3
Suggest correction
Give kudos to tab author, rate the tab!
1 2 3 4 5
comments
print report bad tab
guest
You may want to rate the tab now too:
select rating
Wanna post a correction for this tab? Suggest correction