Oops, an error
Loading. Please wait.

Silence Is Deafening tab

3,508 views 1 this week
2 commentsread comments
1 2 3 4 5
2 more votes to show rating
add to favorites
×
Save as Personal and add changes to this tab that will be seen only by you. Learn more ›
×
You can save this tab as Personal to edit and correct it or add notes. All changes will be seen only by you. Learn more »
launch autoscroll
font size
0
reset
how to read this tab
guitar tuner
edit
Autoscroll
slow
fast
+/-
esc
set tempo
stop
Author
Difficulty
/---------------------------------------------------------------------------/
/    The following is the author's own interpretation of the song, to be    /
/                     used for private use and studying                     /
/---------------------------------------------------------------------------/

Band:  Napalm Death
Album: The Code Is Red...Long Live The Code
Song:  Silence Is Deafening

Tab Version 1.0 - 4/3/06

Transcribed By: The Great Southern Trendkill
Email:          fromadyingfetus@aol.com


Legend:

.  - palm mute           /  - slide up to
\  - slide down to       ~  - vibrato
h  - hammer on           b  - Bend
p  - pull off            Suffixes for bend
t  - tap                 f  - full bend    h - half bend
ph - pinched harmonic    q  - quarter bend t - tap bend
*  - see comment         ^  - Hold bend    r release bend
x  - Stuccatto           ~  - vibrato bend
,  - slight palm mute    () - ghost note, sustained note
"  - tremolo note        <> - Trill

Tuning: D G C F A D

  
 Intro (Riff 1)							   2X
|--------------------------------------------------------------------|
|--------------------------------------------------------------------|
|--------------------------------------------------------------------|Guitar 
|--------------------7-5-------------------------7-5-----------------|  I
|---4------4-------6-5-3-6------4------4-------6-5-3-----------------|
|-0-2--0-0-2--0--0-4-----4-----0-2--0-0-2--0--0-4--------------------|
                                                                    
 
|--------------------------------------------------------------------|
|--------------------------------------------------------------------|
|--------------------------------------------------------------------|Guitar 
|--------------------------------------------------------------------|  II
|-2----------------------------2-------------------------------------|
|-0----------------------------0-------------------------------------|

 Riff 1								   4X
|--------------------------------------------------------------------|
|--------------------------------------------------------------------|
|--------------------------------------------------------------------|
|--------------------7-5-------------------------7-5-----------------| 
|---4------4-------6-5-3-6------4------4-------6-5-3-----------------|
|-0-2--0-0-2--0--0-4-----4-----0-2--0-0-2--0--0-4--------------------|

 Riff 2								   2X
|--------------------------------------------------------------------|
|--------------------------------------------------------------------|
|--------------------------------------------------------------------|
|-533333333333333--855555555555555--2-2-244444444--2-2-244444444-----| 
|-311111111111111--633333333333333--0-0-0----------0-0-0-------------|
|--------------------------------------------------------------------|

 RIff 1								   4X
|--------------------------------------------------------------------|
|--------------------------------------------------------------------|
|--------------------------------------------------------------------|
|--------------------7-5-------------------------7-5-----------------| 
|---4------4-------6-5-3-6------4------4-------6-5-3-----------------|
|-0-2--0-0-2--0--0-4-----4-----0-2--0-0-2--0--0-4--------------------|

 Riff 2								   2X
|--------------------------------------------------------------------|
|--------------------------------------------------------------------|
|--------------------------------------------------------------------|
|-533333333333333--855555555555555--2-2-244444444--2-2-244444444-----| 
|-311111111111111--633333333333333--0-0-0----------0-0-0-------------|
|--------------------------------------------------------------------|

 Riff 3								   2X
|--------------------------------------------------------------------|
|--------------------------------------------------------------------|
|--------------------------------------------------------------------| 
|--------------------------------------------------------------------|
|-9---9-9-8-(8)----9---9-9-8-(8)---5---------------------------------|
|-7---7-7-6-(6)----7---7-7-6-(6)---3---------------------------------|

 Riff 4								   4X
|--------------------------------------------------------------------|
|--------------------------------------------------------------------|
|--------------------------------------------------------------------|
|--------------------------------------------------------------------|
|-9---9-9-8---5---8---9---12---11----12---12-12-11---8--11---12------|
|-7---7-7-6---3---6---7---10----9----10---10-10--9---6---9---10------|

 Riff 5							                       2X
|--------------------------------------------------------------------------------|
|--------------------------------------------------------------------------------|
|-------------------------------------------------------------4/6--4/6--4/7--4/9-|
|-7/6--7/6--5/3--8/7----------------------7/6--7/6--5/3--8/7--2/4--2/4--2/5--2/7-|
|-5/4--5/4--3/1--6/5----4----4----5----7--5/4--5/4--3/1--6/5---------------------|
|---------------------0-2--0-2--0-3--0-5-----------------------------------------|

 Riff 4							           4X
|--------------------------------------------------------------------|
|--------------------------------------------------------------------|
|--------------------------------------------------------------------|
|--------------------------------------------------------------------|
|-9---9-9-8---5---8---9---12---11----12---12-12-11---8--11---12------|
|-7---7-7-6---3---6---7---10----9----10---10-10--9---6---9---10------|

 Riff 5								               2X
|--------------------------------------------------------------------------------|
|--------------------------------------------------------------------------------|
|-------------------------------------------------------------2/4--2/4--2/5--2/7-|
|-7/6--7/6--5/3--8/7----------------------7/6--7/6--5/3--8/7--2/4--2/4--2/5--2/7-|
|-5/4--5/4--3/1--6/5----4----4----5----7--5/4--5/4--3/1--6/5---------------------|
|---------------------0-2--0-2--0-3--0-5-----------------------------------------|

 Bridge
|--------------------------------------------------------------------|
|--------------------------------------------------------------------|
|--------------------------------------------------------------------|Guitar
|--------------------------------------------------------------------|  I
|-2--(2)-------------------------------------------------------------|
|-0--(0)-------------------------------------------------------------|
                                                                   
|--------------------------------------------------------------------|
|--------------------------------------------------------------------|
|--------------------------------------------------------------------|Guitar 
|--------------------------------------------------------------------|  II
|-2--(2)-------------------------------------------------------------|
|-0--(0)-------------------------------------------------------------|

 Riff 6								   4X
|--------------------------------------------------------------------|
|--------------------------------------------------------------------|
|--------------------------------------------------------------------|Guitar
|--------------------------------------------------------------------|  I
|-----------------1"----2--------------(2)---------------------------|
|-0---0---3---2---------0--------------(0)---------------------------|


|--------------------------------------------------------------------|
|--------------------------------------------------------------------|
|---------------------------------------3"---------------------------|Guitar
|-----------------------2---2---5---4--------------------------------| II
|--------------------------------------------------------------------|
|-(0)--------(0)-----------------------------------------------------|

 Riff 7							           8X
|--------------------------------------------------------------------|
|--------------------------------------------------------------------|
|--------------------------------------------------------------------|
|------------------------------------5---3---------------------------| 
|-2--2-2------2--2-2------2--2-2-5---3---1---5-----------------------|
|-0--0-0-3~---0--0-0-5~---0--0-0-3-----------3-----------------------|


 Order:
 Intro (Riff 1)
 Riff 1
 Riff 2
 Riff 1	 
 Riff 2	 
 Riff 3	
 Riff 4
 Riff 5	 
 Riff 4	 
 Riff 5
 Bridge
 Riff 6
 Riff 7

            
            
Suggest correction
Creating personal tab
Creating personal tab
You can edit any tab online and save it as your Personal.

You can edit, replace or remove any tab part or add personal notes – all changes will be seen only by you.

Personal tabs can be accessed anytime from any device, even offline.
Learn more »
Give kudos to tab author, rate the tab!
1 2 3 4 5
comments
print report bad tab
2 comments total.
0 reply
KoRnOnA6String 114 May 31, 2006 09:02 AM

This tab's pretty accurate, but this is what I've tabbed out so far...

||-------------------------------------------
||-------------------------------------------
||-------------------------------------------
||-------------------------------------------
||--4---4--6\10-12/10-6---4---4--6\10-12/10~-
||-02-002-04\8--10/8--4--02-002-04\8--10/8~~-

||--------------------------------------||
||--------------------------------------||
||--------------------------------------||
||---------------------------------7----||
||--4---4--6\10-12/10-6---4---4--6-5-2~-||
||-02-002-04\8--10/8--4--02-002-04---0~-||

||------------------------||
||------------------------||
||------------------------||
||-7-8\9/8~---9-8\9/8~--5-||
||-7-6\7/6~---7-6\7/6~--3-||
||------------------------||

||------------------------------------------------||
||------------------------------------------------||
||------------------------------------------------||
||-7-8\9/8-5-8-9-12-11--12-11\12/11-9-11-12-14-13-||
||-7-6\7/6-3-6-7-10-9---10-9-\10/9--7-9--10-12-11-||
||------------------------------------------------||

0 reply
xxieatbabiesxxx 92 Dec 02, 2008 10:13 AM

I wish I would've had the sense to create a UG profile before submitting this as a powertab, so *******s like this guy straight up steal it and call it their own. Oh well.

guest
You may want to rate the tab now too:
select rating
Wanna post a correction for this tab? Suggest correction