Oops, an error
Loading. Please wait.

La Peste tab

144 views 3 this week
no commentswrite comment
1 2 3 4 5
3 more votes to show rating
add to favorites
×
Save as Personal and add changes to this tab that will be seen only by you. Learn more ›
×
You can save this tab as Personal to edit and correct it or add notes. All changes will be seen only by you. Learn more »
launch autoscroll
font size
0
reset
how to read this tab
guitar tuner
edit
Autoscroll
slow
fast
+/-
esc
set tempo
stop
NARCOSIS
LA PESTE


Muy buena cancion de Narcosis, con mucha 
fuerza y rebeldia, que abre lo que ya
 es un disco basico en el rock 'subterraneo'
 peruano. Esta transcrpcion la hice 
con mi guitarra acustica asi que si 
esta mal, no jodan que no tengo 
electrica, luego me parece que 
le puedes bajar o subir , no se 
yo la toco afinandolo segun el caset ,
 tu mismo eres , lo importante 
es que tienes los acordes,
de alli no jodas mas.
 


INTRO:
E-|--------------------------------------------|
B-|--------------------------------------------|
G-|--8-8/11/6-8-8/11/6--4-4-4-4-4/6-6-6-6------|
D-|--8-8/11/6-8-8/11/6--4-4-4-4-4/6-6-6-6------|
A-|--6-6/9-/4-6-6/9-/4--2-2-2-2-2/4-4-4-4------|
E-|--------------------------------------------|

E-|--------------------------------------------|
B-|--------------------------------------------|
G-|--8-8/11/6-8-8/11/6--4-4-4-4-4/6-6-6-6------|
D-|--8-8/11/6-8-8/11/6--4-4-4-4-4/6-6-6-6------|
A-|--6-6/9-/4-6-6/9-/4--2-2-2-2-2/4-4-4-4------|
E-|--------------------------------------------|

E-|--------------------------------------------|
B-|--------------------------------------------|
G-|--8-8-8-8-6-6-6-6-4-4-4-4-6-6-6-6-----------|
D-|--8-8-8-8-6-6-6-6-4-4-4-4-6-6-6-6-----------|
A-|--6-6-6-6-4-4-4-4-2-2-2-2-4-4-4-4-----------|
E-|--------------------------------------------|


E-|--------------------------------------------|
B-|--------------------------------------------|
G-|--8-8-8-8-6-6-6-6-4-4-4-4-6-6-6-6-----------|
D-|--8-8-8-8-6-6-6-6-4-4-4-4-6-6-6-6-----------|
A-|--6-6-6-6-4-4-4-4-2-2-2-2-4-4-4-4-----------|
E-|--------------------------------------------|


VERSO:
 
    la peste rodea tu cabeza y no te deja libre
E-|----------------------------------------------------|
B-|----------------------------------------------------|
G-|----8--8--8--8--6--6--6--6--4--4--4--4--6-6-6-6-----|
D-|----8--8--8--8--6--6--6--6--4--4--4--4--6-6-6-6-----|
A-|----6--6--6--6--4--4--4--4--2--2--2--2--4-4-4-4-----|
E-|----------------------------------------------------|


   la peste rodea tu cabeza y no te deja libre
E-|----------------------------------------------------|
B-|----------------------------------------------------|
G-|----8--8--8--8--6--6--6--6--4--4--4--4--6-6-6-6-----|
D-|----8--8--8--8--6--6--6--6--4--4--4--4--6-6-6-6-----|
A-|----6--6--6--6--4--4--4--4--2--2--2--2--4-4-4-4-----|
E-|----------------------------------------------------|


       sexo   religion
E-|--------------------------------------------|
B-|--------------------------------------------|
G-|--8-8/11/6-8-8/11/6--4-4-4-4-4/6-6-6-6------|
D-|--8-8/11/6-8-8/11/6--4-4-4-4-4/6-6-6-6------|
A-|--6-6/9-/4-6-6/9-/4--2-2-2-2-2/4-4-4-4------|
E-|--------------------------------------------|


      mucha  represion
E-|--------------------------------------------|
B-|--------------------------------------------|
G-|--8-8/11/6-8-8/11/6--4-4-4-4-4/6-6-6-6------|
D-|--8-8/11/6-8-8/11/6--4-4-4-4-4/6-6-6-6------|
A-|--6-6/9-/4-6-6/9-/4--2-2-2-2-2/4-4-4-4------|
E-|--------------------------------------------|


REPETIR:
la peste rodea tu cabeza y no te deja libre
la peste rodea tu cabez y no te deja libre
panico, terror, terrorismo destructyor
la peste rodea tu cabeza y no te deja libre


Samaquea tu cabeza y rompe un par de cuerdas un rato, provecho
cualquier 'halago' o mentada de madre a : rhcp80@

            
            
Suggest correction
Creating personal tab
Creating personal tab
You can edit any tab online and save it as your Personal.

You can edit, replace or remove any tab part or add personal notes – all changes will be seen only by you.

Personal tabs can be accessed anytime from any device, even offline.
Learn more »
Give kudos to tab author, rate the tab!
1 2 3 4 5
comments
print report bad tab
guest
Wanna post a correction for this tab? Suggest correction