Oops, an error
Loading. Please wait.

Seven Tears Are Flowing To The River tab

version 1
version 1

Whole song

Interactive

33,243 views 81 this week
3 commentsread comments
1 2 3 4 5
x 6
add to favorites
×
Save as Personal and add changes to this tab that will be seen only by you. Learn more ›
×
You can save this tab as Personal to edit and correct it or add notes. All changes will be seen only by you. Learn more »
launch autoscroll
font size
0
reset
how to read this tab
guitar tuner
edit
Autoscroll
slow
fast
+/-
esc
set tempo
stop
Song: Seven tears are flowing to the river
Band: Nargaroth
Album: Black Metal ist Krieg

Tuning: 1 step down from standard.


(0:00) (clean)

   1 +2 + 3+ 4 + 1 +2 + 3+ 4 + 1 +2 + 3+ 4 + 1+ 2 + 3 + 4 +
D#|-------------|-------------|-------------|--------------|
A#|--0----0----0|--2----2----2|--3----3----3|---3---2---2--|
F#|0----0----0--|0----0----0--|-------------|--------------|
C#|-------------|-------------|-------------|--------------|
G#|-------------|-------------|2----2----2--|-2---2---2---2|
D#|-------------|-------------|-------------|--------------|

   (0:09)
D#|-------------|-------------|------------|--------------|
A#|--0----0----0|--2----2----2|----3----3--|-3---3---2---2|
F#|0----0----0--|0----0----0--|------------|--------------|
C#|-------------|-------------|------------|--------------|
G#|-------------|-------------|2------2---2|---2---2---2--|
D#|-------------|-------------|------------|--------------|

   (0:17)
D#|-------------|-------------|-------------|--------------|
A#|--0----0----0|--2----2----2|--3----3----3|---3---2---2--|
F#|0----0----0--|0----0----0--|-------------|--------------|
C#|-------------|-------------|-------------|--------------|
G#|-------------|-------------|2----2----2--|-2---2---2---2|
D#|-------------|-------------|-------------|--------------|

   (0:25)
D#|-------------|--------------|-------------|--------------|
A#|--0----0--3-0|--2----2---3-2|3-3----3----3|---3---2---2--|
F#|0----0-------|0----0---0----|-------------|--------------|
C#|-------------|--------------|-------------|--------------|
G#|-------------|--------------|2----2----2--|-2---2---2---2|
D#|-------------|--------------|-------------|--------------|

   (0:34)
D#|-------------|-------------|-------------|--------------|
A#|--0----0----0|--2----2----2|--3----3--3--|-2---2---2-3-2|
F#|0----0----0--|0----0----0--|-------------|--------------|
C#|-------------|-------------|-------------|--------------|
G#|-------------|-------------|2----2------2|---2---2------|
D#|-------------|-------------|-------------|--------------|

   (0:42)
D#|-------------|--------------|-------------|--------------|
A#|--0----0----0|--2----2---2--|--3----3--3--|-2---2---2-3-2|
F#|0----0----0--|0----0---0---0|-------------|--------------|
C#|-------------|--------------|-------------|--------------|
G#|-------------|--------------|2----2------2|---2---2------|
D#|-------------|--------------|-------------|--------------|

   (0:50)
D#|-------------|-------------|-------------|--------------|
A#|--0----0----0|--2----2----2|--3----3----3|---3-----2---0|
F#|0----0----0--|0----0----0--|-------------|--------------|
C#|-------------|-------------|-------------|--------------|
G#|-------------|-------------|2----2----2--|-2---2-2---2--|
D#|-------------|-------------|-------------|--------------|

   (0:59)
D#|-------------|--------------|---------||
A#|--0----0----0|--2----2---2--|3--------||
F#|0----0----0--|0----0---0---0|---------||
C#|-------------|--------------|---------||
G#|-------------|--------------|2--------||
D#|-------------|--------------|---------||
                   ritardando

(distortion)

[Riff 1] 

(1:11) (tremolo)
D#|-------------------------------------------------------------------------|
A#|-------------------------------------------------------------------------|
F#|-4-4-4-4-4-4-4-4--6-6-6-6-6-6-6-6--7-7-7-7--6-6-6-6--4-4-4-4--6-6-6-6----|
C#|-5-5-5-5-5-5-5-5--5-5-5-5-5-5-5-5--9-9-9-9--9-9-9-9--5-5-5-5--7-7-7-7----|
G#|-------------------------------------------------------------------------|
D#|-------------------------------------------------------------------------|
  |                                                                         |(x2) 
D#|------------------------------------------------------------------------||
A#|------------------------------------------------------------------------||
F#|--4-4-4-4-4-4-4-4--6-6-6-6-6-6--4--6--7-7-7-7-7-7-7-7-7-7-7-7-7-7--6-6--||
C#|--5-5-5-5-5-5-5-5--5-5-5-5-5-5--5--5--9-9-9-9-9-9-9-9-9-9-9-9-9-9--9-9--||
G#|------------------------------------------------------------------------||
D#|------------------------------------------------------------------------||


[Riff 2]

(1:33) (tremolo)
D#|------------------------------------------------------------------------------------------------|
A#|------------------------------------------------------------------------------------------------|
F#|-12-12-12-12--11-11-11-11--9-9-9-9--11-11-11-11--12-12-12-12--11-11-11-11--9-9-9-9--11-11-11-11-|
C#|--9--9--9--9---9--9--9--9--9-9-9-9---9--9--9--9---9--9--9--9---9--9--9--9--9-9-9-9---9--9--9--9-|
G#|------------------------------------------------------------------------------------------------|
D#|------------------------------------------------------------------------------------------------|
  |                                                                                                |(x2)
D#|-----------------------------------------------------------------------------------------------||
A#|-----------------------------------------------------------------------------------------------||
F#|--7-7-7-7--6-6-6-6-------------------7-7-7-7--6-6-6-6------------------------------------------||
C#|--9-9-9-9--9-9-9-9--7-7-7-7-7-7-7-7--9-9-9-9--9-9-9-9--7-7-7-7-7-7-7-7-------------------------||
G#|--------------------9-9-9-9-9-9-9-9--------------------9-9-9-9-9-9-9-9-------------------------||
D#|-----------------------------------------------------------------------------------------------||


[Riff 3]

(1:55) (tremolo)
D#|--------------------------------------------------------------------------|
A#|--------------------------------------------------------------------------|
F#|-4-4-4-4-4-4-4-4--6-6-6-6-6-6-6-6--7-7-7-7-7-7-7-7--11-11-11-11--9-9-9-9--|
C#|-5-5-5-5-5-5-5-5--7-7-7-7-7-7-7-7--9-9-9-9-9-9-9-9---9--9--9--9--9-9-9-9--|
G#|--------------------------------------------------------------------------|
D#|--------------------------------------------------------------------------|
                                                                             |
D#|--------------------------------------------------------------------------|
A#|--------------------------------------------------------------------------|
F#|--4-4-4-4-4-4-4-4--6-6-6-6-6-6-6-6--7-7-7-7-7-7-7-7-7-7--6-6-6-6----------|
C#|--5-5-5-5-5-5-5-5--5-5-5-5-5-5-5-5--9-9-9-9-9-9-9-9-9-9--9-9-9-9----------|
G#|--------------------------------------------------------------------------|
D#|--------------------------------------------------------------------------|
                                                                             |(x2)
D#|--------------------------------------------------------------------------|
A#|--------------------------------------------------------------------------|
F#|-4-4-4-4-4-4-4-4--6-6-6-6-6-6-6-6--7-7-7-7-7-7-7-7--11-11-11-11--9-9-9-9--|
C#|-5-5-5-5-5-5-5-5--7-7-7-7-7-7-7-7--9-9-9-9-9-9-9-9---9--9--9--9--9-9-9-9--|
G#|--------------------------------------------------------------------------|
D#|--------------------------------------------------------------------------|
                                                                             |
D#|-------------------------------------------------------------------------||
A#|-------------------------------------------------------------------------||
F#|--4-4-4-4-4-4-4-4--6-6-6-6-6-6-6-6--7-7-7-7--6-6-6-6--4-4-4-4--2-2-2-2---||
C#|--5-5-5-5-5-5-5-5--5-5-5-5-5-5-5-5--9-9-9-9--9-9-9-9--5-5-5-5--4-4-4-4---||
G#|-------------------------------------------------------------------------||
D#|-------------------------------------------------------------------------||

[Riff 1] (x2)
[Riff 2] (x2)
[Riff 3] (x2)
[Riff 1] (x2)
[Riff 2] (x2)
[Riff 3] (x2)
[Riff 1] (x2)
[Riff 2] (x2)
[Riff 3] (x2)
[Riff 1] (x2)
[Riff 2] (x2)
[Riff 3] (x2)
[Riff 1] (x2)
[Riff 2] (x2)
[Riff 3] (x2)


[Riff 4] (x4)

(7:36) (tremolo)
D#|------------------------------------------------------|
A#|------------------------------------------------------|
F#|-7-7-7-7-7-7--6-6-----------6-6-6-6-------------------|
C#|-9-9-9-9-9-9--9-9--9-9-9-9--9-9-9-9--7-7-7-7-7-7--6-6-|
G#|-------------------9-9-9-9-----------9-9-9-9-9-9--9-9-|
D#|------------------------------------------------------|
                                                     
D#|------------------------------------------------------|
A#|-------------------8-8-8-8-8-8--7-7-----------7-7-7-7-|
F#|-------------------9-9-9-9-9-9--9-9--9-9-9-9--9-9-9-9-|
C#|----------6-6-6-6--------------------9-9-9-9----------|
G#|-9-9-9-9--9-9-9-9-------------------------------------|
D#|-9-9-9-9----------------------------------------------|
                                                        
      1.                  2.                  3.                  4.
D#|--|-------------------|-------------------|-------------------|-------------------||
A#|--|-------------------|-------------------|-------------------|-------------------||
F#|--|-6-6-6-6-6-6-------|--------------6-6--|-6-6-6-6--7-7--6-6-|--------------6-6--||
C#|--|-9-9-9-9-9-9--9-9--|-9-9-9-9-9-9--9-9--|-9-9-9-9--9-9--9-9-|-9-9-9-9-9-9--9-9--||
G#|--|--------------9-9--|-9-9-9-9-9-9-------|-------------------|-9-9-9-9-9-9-------||
D#|--|-------------------|-------------------|-------------------|-------------------||

[Riff 1] (x2)
[Riff 2] (x2)
[Riff 3] (x2)
[Riff 1] (x2)
[Riff 2] (x2)
[Riff 3] (x2)
[Riff 1] (x2)
[Riff 2] (x2)
[Riff 3] (x2)
[Riff 1] (x2)
[Riff 2] (x2)

D#|-------------------------------------------------------------------------|
A#|-------------------------------------------------------------------------|
F#|-4-4-4-4-4-4-4-4--6-6-6-6-6-6-6-6--7-7-7-7-7-7-7-7--11-11-11-11--9-9-9-9-|
C#|-5-5-5-5-5-5-5-5--7-7-7-7-7-7-7-7--9-9-9-9-9-9-9-9---9--9--9--9--9-9-9-9-|
G#|-------------------------------------------------------------------------|
D#|-------------------------------------------------------------------------|

D#|-------------------------------------------------------------------------|
A#|-------------------------------------------------------------------------|
F#|--4-4-4-4-4-4-4-4--6-6-6-6-6-6-6-6--7-7-7-7-7-7-7-7-7-7--6-6-6-6---------|
C#|--5-5-5-5-5-5-5-5--5-5-5-5-5-5-5-5--9-9-9-9-9-9-9-9-9-9--9-9-9-9---------|
G#|-------------------------------------------------------------------------|
D#|-------------------------------------------------------------------------|

D#|-------------------------------------------------------------------------|
A#|-------------------------------------------------------------------------|
F#|-4-4-4-4-4-4-4-4--6-6-6-6-6-6-6-6--7-7-7-7-7-7-7-7--11-11-11-11--9-9-9-9-|
C#|-5-5-5-5-5-5-5-5--7-7-7-7-7-7-7-7--9-9-9-9-9-9-9-9---9--9--9--9--9-9-9-9-|
G#|-------------------------------------------------------------------------|
D#|-------------------------------------------------------------------------|

D#|------------------------------------------------------------------------||
A#|------------------------------------------------------------------------||
F#|--4-4-4-4-4-4-4--4-6-6-6-6-6-6-6-6--7-7-7-7--7-(let ring)---------------||
C#|--5-5-5-5-5-5-5--5-5-5-5-5-5-5-5-5--9-9-9-9--9--------------------------||
G#|------------------------------------------------------------------------||
D#|------------------------------------------------------------------------||
Suggest correction
Creating personal tab
Creating personal tab
You can edit any tab online and save it as your Personal.

You can edit, replace or remove any tab part or add personal notes – all changes will be seen only by you.

Personal tabs can be accessed anytime from any device, even offline.
Learn more »
comments
print report bad tab
3 comments total.
0 reply
Nocturnal Frost 187 Apr 18, 2006 09:02 AM

great man!
a awesome nargaroth's song and you tabbed it perfectly!
good work ;)

0 reply
j-falafel 359 Jun 26, 2011 12:17 PM

this is off by one note. I think it's better to either play this somewhere else on the fretboard, or play this in standard D.

-1 reply
j-falafel 359 Jun 26, 2011 12:23 PM

Yep, just played it in standard D and it sounds perfect.

guest
You may want to rate the tab now too:
select rating
Wanna post a correction for this tab? Suggest correction