Oops, an error
Loading. Please wait.

Guardame Las Vacas tab

version 1
version 1

Whole song

Interactive

14,422 views 39 this week
no commentswrite comment
1 2 3 4 5
x 5
add to favorites
×
Save as Personal and add changes to this tab that will be seen only by you. Learn more ›
×
You can save this tab as Personal to edit and correct it or add notes. All changes will be seen only by you. Learn more »
launch autoscroll
font size
0
reset
how to read this tab
guitar tuner
edit
Autoscroll
slow
fast
+/-
esc
set tempo
stop
Author
Unregistered
Guardame Las Vacas
Luis de Narvaez

o = whole note, d,P = half note, | = quarter note, |_ = eighth note,
R = quarter rest, r = eighth rest, . = dotted note

 Standard tuning, 6/4 time
                                                                        _____
   |   |   |   |   |   |     |   |   |   |   |   |     R   |   |   |   | | | |
e|-0-----------------------|-------------------------|-------------------------|
B|-----1-------------------|-0---3---0---------------|-----1---0---1---3-1-0---|
G|---------2---0-----------|-------------0-----------|-------------2---------2-|
D|-----------------2-------|-----------------0-------|-----2---0---2-----------|
A|-3-------------------3---|-------------------------|-0-----------0-----------|
E|-------------------------|-3-------------------3---|---------3---------------|
   o.                        o.                        |   |   |   P.
    _____
   | | | | o                |   |   |   |   |   |    |   |   |   |   |   |
e|------------------------|-0----------------------|------------------------|
B|---------0--------------|-----1------------------|-0---3---0--------------|
G|-1---1-2----------------|---------2---0----------|-------------0----------|
D|---4---------2----------|-----------------2------|-----------------0------|
A|-----------------2------|-3-------------------3--|------------------------|
E|-0-------------------0--|------------------------|-3-------------------3--|
   P       R   |   |   |    o.                       o.
    _____   _                                             _   _____   _____
   | | | | | | |   |   |    o.                       |   | | | | | | | | | |
e|------------------------|------------------------|-0-------0---1-0---------|
B|-1-3-1-0----------------|------------------------|-----1-3---3-----3-1-0---|
G|---------2-1-2-------1--|-2----------------------|-----------------------2-|
D|-2---------------2------|------------------------|-------------------------|
A|-0-----------0----------|-0----------------------|-3-----------3-----------|
E|-----------------0------|------------------------|-------------------------|
   P.          |   P        o.                       P.          P.
    _____   _____   _____     _____   _____   _____     _____
   | | | | | | | | | | | |   | | | | | | | | | | | |   | | | | o
e|-------------------------|---------0---1-0---------|------------------------|
B|-0-------0---0-2-3-2-3-0-|-1-0-1-3---3-----3-1-0---|---------0--------------|
G|-----0-2---2-------------|-----------------------2-|-1---1-2----------------|
D|---4---------------------|-------------------------|---4---------2----------|
A|-------------------------|-0-----------0-----------|-----------------2------|
E|-3---------------3-------|-------------------------|---------------------0--|
   o               P         P.          P.            R   R   R   |   |   |
        _   _____   _____     _____   _____   _____     _____   _____
   |   | | | | | | | | | |   | | | | | | | | | | | |   | | | | | | | | |   |
e|-0-------0---1-0---------|-------------------------|---------0-2-4-5-4---0--|
B|-----1-3---3-----3-1-0---|-0-------0---0-2-3-2-3-0-|-1-0-1-3----------------|
G|-----------------------2-|-----0-2---2-------------|------------------------|
D|-------------------------|---4---------------------|------------------------|
A|-3-----------3-----------|-------------------------|-0----------------------|
E|-------------------------|-3-----------------------|-----------------0------|
   P.          P.            o               P         o               P
                              _                        _
   o.                    R   | | |   R   |   R    R   | | |   R   |   R
e|-5-------------------|-----0-2-3--------------|------------------------|
B|---------------------|------------------------|-----0-2-3--------------|
G|---------------------|-----------------0------|------------------------|
D|---------------------|-------------2-4--------|-----------------0------|
A|-0-------------------|-3-------------------3--|-------------2-4--------|
E|---------------------|------------------------|-3-------------------3--|
   o.                    |   R   R   |_| R   |    |   R   R   |_| R   |
        _       _                _                        _   _____   _____
   |   | | |   | | |   |    |   | | o                R   | | | | | | | | | |
e|-----5-7-8-------5------|-4----------------------|---------3---5-3---------|
B|------------------------|-5-------0--------------|-----5-6---5-----6-5-3---|
G|-5-------------4-5---7--|-4----------------------|-----------------------5-|
D|-------------7----------|-----6-7----------------|-------------------------|
A|-0---------------0------|-----------------2------|-3-----------3-----------|
E|------------------------|-0-----------4-5-----0--|-------------------------|
   o               P        P.          |_| |   |    P.          P.
    _____   _____   _____
   | | | | | | | | | | | |   R   |   |   |   |   |    o.
e|-------------------------|------------------------|----------------------|
B|-0-1-3-1-0---------------|-----1---0-------0------|----------------------|
G|-----------2-0-----------|-------------2-------1--|-2--------------------|
D|---------------3-2-0-----|-----2------------------|----------------------|
A|---------------------3-2-|-0----------------------|-0--------------------|
E|-3-----------------------|---------3---1---0------|----------------------|
   o.                        |   |   |   |   P        o.
                    _____                                  _____       _____
   o               | | | |   o.                       |   | | | | |   | | | |
e|-0-----------------------|------------------------|-------------0-----4-5-7-|
B|---------------------0-2-|-3----------------------|-1-----0-1-3-----7-------|
G|-----------------0-2-----|------------------------|-----2-------------------|
D|-----------0-2-----------|-------------0----------|-------------------------|
A|-3---0-2-3---------------|-------0-2-4-----2------|-0-----------------------|
E|-------------------------|-----3---------------3--|-------------------------|
   |   |_|_|_| |   R   R     R   |_| |_| |   |   |    o.
        _   _                                _____     _____   _
   |   | | | | |   d        o               | | | |   | | | | | | |   d
e|-4----------------------|-0-----------------------|-------4-5-8-7---0------|
B|-------------0----------|-----------------------2-|-3-5-7-----------0------|
G|---------1-2------------|-----------------0-2-4---|-----------------0------|
D|-----2-4---------2------|-----------0-2-4---------|------------------------|
A|---------------------2--|-3---0-2-3---------------|------------------------|
E|-0----------------------|-------------------------|-----------------0---3--|
   o               R   |    |   |_| |_|_|_| R   R     R   R   R   R   |   |
        _____
   |   | | | | |   |   |    o               R   |    |   |   |   |   |   |
e|-0---------------0------|---------------------0--|-1---0------------------|
B|-1---------------0------|---------------------1--|-3---1---3---1---0------|
G|-------1-2-1-2---2---1--|-2----------------------|---------4---2-------1--|
D|-2---4------------------|-------0-2--------------|---------------------2--|
A|-0----------------------|-0-2-3-------3---0------|------------------------|
E|-----------------0------|------------------------|------------------------|
   o               P        |_|_|_| |   |   |   R    R   R   R   R   R   |

   |   |   d.          |    |   |   |   |   |   |    o.
e|---------------------0--|-1---0------------------|---------------------|
B|------------------------|---------3---1---0------|---------------------|
G|-2----------------------|-----0---4---2---2---1--|-2-------------------|
D|-3---2---0--------------|-----------------2------|---------------------|
A|-5---3---2---3---2------|-0---3-------0----------|-0-------------------|
E|-------------5---4------|---------3-------0------|---------------------|
   |   |   |   |   P        |   |   |   |   P        o.

            
            
Suggest correction
Creating personal tab
Creating personal tab
You can edit any tab online and save it as your Personal.

You can edit, replace or remove any tab part or add personal notes – all changes will be seen only by you.

Personal tabs can be accessed anytime from any device, even offline.
Learn more »
comments
print report bad tab
guest
Wanna post a correction for this tab? Suggest correction