Oops, an error
Loading. Please wait.

Donde Estas chords

by Nash
29 views 1 this week
no commentswrite comment
1 2 3 4 5
3 more votes to show rating
add to favorites
×
Save as Personal and add changes to this tab that will be seen only by you. Learn more ›
×
You can save this tab as Personal to edit and correct it or add notes. All changes will be seen only by you. Learn more »
launch autoscroll
font size
0
reset
transpose
0
reset
simplify chords
display chords
guitar tuner
edit
Autoscroll
slow
fast
+/-
esc
set tempo
stop
Strumming
There is no strumming pattern for this song yet. and get +5 IQ
grupo   NASH

TÌTULO   :     DONDE ESTAS
transcripciòn: Ines Esparragosa Vazquez
compas 4/4    capotasto en III   traste
(INTRO)
--------------------------------------------------------------------
---1-0----1-------1--------1---0--0-----------1-0--1-----------1---0
---------------------------0---------2--2--0-----------------0------
------------2---3------------------------------------2-3-2--0-------
----------0----------------------------------------0----------------
---------------------------3-------------------------------3--------
 (A)
Hoy quiero soñar una vez más que estás aquí
    C9      F7         G           C9
volver a sentirte respirar dentro de mí
            F7       G           Am
te fuiste tan rápido,  Adios.
              F7      C7 
       --------------------------
(B)

Sé,sé que al despertar me perderé en el dolor
   C9            F7        G         C9
que injusto fue verte partir mi amor
     F7               G      Am
tu corazón se apagó
 Em   F       G
         ----------------------------
( ESTRIBILLO)

Y me siento solo  no se seguir
 C          F          G
me he quedado solo todo perdí
C            F          G
si no estás, nunca más
       Am         F
no sabré qué es amar
     C          G
y me siento solo, donde estás
 C          F       G
      --------------------------------
(B)
Y miro al espejo que una vez nos vio reir
tantos recuerdos quedan hoy en mí
vivir sin tu es no vivir
     --------------------------------
(ESTRIBILLO)
    --------------------------------
(CODA)
 Sigo el destino enseñame el camino o renuncia a vivir

 C-F          C-F                 G

      ---------------------------------
(ESTRIBILLO)
       -----------------------------
FIN

            
            
Suggest correction
Creating personal tab
Creating personal tab
You can edit any tab online and save it as your Personal.

You can edit, replace or remove any tab part or add personal notes – all changes will be seen only by you.

Personal tabs can be accessed anytime from any device, even offline.
Learn more »
Give kudos to tab author, rate the tab!
1 2 3 4 5
comments
print report bad tab
guest
Wanna post a correction for this tab? Suggest correction