Oops, an error
Loading. Please wait.

Fade Into You tab

1,870 views 63 this week
1 commentread comment
1 2 3 4 5
x 5
add to favorites
×
Save as Personal and add changes to this tab that will be seen only by you. Learn more ›
×
You can save this tab as Personal to edit and correct it or add notes. All changes will be seen only by you. Learn more »
launch autoscroll
font size
0
reset
how to read this tab
guitar tuner
edit
Autoscroll
slow
fast
+/-
esc
set tempo
stop
Author
Difficulty
About this tab version
Fade into you by Nashville cast, no capo :). Was this info helpful? Yes No
This is a tab from the beautiful song 'Fade Into You' from Nashville, 
performed by Clare Bowen (Scarlett) and Sam Palladio (Gunnar) :) 

Hope you like it, if you have tips for me, please send them! 

Fade Into You - Clare Bowen & Sam Palladio

[Intro]

e|-----7-7------7-7------7-7------7-7---|-----7-7------7-7------7-7------7-7---|
B|-----7-7------7-7------7-7------7-7---|-----7-7------7-7------7-7------7-7---|
G|-----7-7------7-7------7-7------7-7---|-----7-7------7-7------7-7------7-7---|
D|---9--------8--------7--------6-------|---9--------8--------7--------6-------|
A|--------------------------------------|--------------------------------------|
E|--------------------------------------|--------------------------------------|


[Verse]

e|-----7-7---------7-7-------7-7--------7-7---|-----7-7--------7-7--------7-7-----7-7---|
B|-----7-7---------7-7-------7-7--------7-7---|-----7-7--------7-7--------7-7-----7-7---|
G|-----7-7---------7-7-------7-7--------7-7---|-----7-7--------7-7--------7-7-----7-7---|
D|---9-----------8---------7----------6-------|---9----------8----------7-------6-------|
A|--------------------------------------------|-----------------------------------------|
E|--------------------------------------------|-----------------------------------------|
  If you were the ocean and I was the sun, If the day made me heavy and gravity won

e|-----7-7------7-7------7-7------7-7---|---------------------0-0-----7-7------7-7------7-7------7-7---|
B|-----7-7------7-7------7-7------7-7---|---------------------2-2-----7-7------7-7------7-7------7-7---|
G|-----7-7------7-7------7-7------7-7---|-----4---4-----------3-3-----7-7------7-7------7-7------7-7---|
D|---9--------8--------7--------6-------|-----5---5-----------4-4---9--------8--------7--------6-------|
A|--------------------------------------|-----5---5-----------4-4--------------------------------------|
E|--------------------------------------|---3-------------2--------------------------------------------|
 If I was the red and you were the blue,    I could just fade into you

e|-----7-7---------7-7-------7-7--------7-7---|-----7-7--------7-7--------7-7-----7-7---|
B|-----7-7---------7-7-------7-7--------7-7---|-----7-7--------7-7--------7-7-----7-7---|
G|-----7-7---------7-7-------7-7--------7-7---|-----7-7--------7-7--------7-7-----7-7---|
D|---9-----------8---------7----------6-------|---9----------8----------7-------6-------|
A|--------------------------------------------|-----------------------------------------|
E|--------------------------------------------|-----------------------------------------|
  If you were a window and I was the rain,    I’d pour myself out and wash off the pain

e|-----7-7------7-7------------7-7--------------7-7---|---------------------0-0---|
B|-----7-7------7-7------------7-7--------------7-7---|---------------------2-2---|
G|-----7-7------7-7------------7-7--------------7-7---|-----4---4-----------3-3---|
D|---9--------8--------------7----------------6-------|-----5---5-----------4-4---|
A|----------------------------------------------------|-----5---5-----------4-4---|
E|----------------------------------------------------|---3-------------2---------|
I’d fall like a tear so your light could shine through,   Then I’d just fade into you

[Chorus]

e|--2---2-------2-----0-------0------0-------3-----3-------3---0--0--0--|
B|--3---3-------3-----2-------2------2-------3-----3-------3---2--2--2--|
G|--4---4-------4-----2-------2------2-------0-----0-------0---3--3--3--|
D|--4---4-------4-----2-------2------2-------0-----0-------0---4--4--4--|
A|--2---2-------2-----0-------0------0-------2-----2-------2---4--4--4--|
E|-------------------------------------------3-----3-------3---2--2--2--|
        In your heart, in your head, in your arms, in your bed under your skin,

e|--2---2-------2-----0-------0------0-------3-3-3---0--0--0--|-----7-7------7-7------7-7------7-7---|
B|--3---3-------3-----2-------2------2-------3-3-3---2--2--2--|-----7-7------7-7------7-7------7-7---|
G|--4---4-------4-----2-------2------2-------0-0-0---3--3--3--|-----7-7------7-7------7-7------7-7---|
D|--4---4-------4-----2-------2------2-------0-0-0---4--4--4--|---9--------8--------7--------6-------|
A|--2---2-------2-----0-------0------0-------2-2-2---4--4--4--|--------------------------------------|
E|-------------------------------------------3-3-3---2--2--2--|--------------------------------------|
        Til there’s no way to know where you end  and where I begin

[Verse]

e|-----7-7------7-7-------7-7--------7-7---|-----7-7--------7-7---------7-7----------7-7---|
B|-----7-7------7-7-------7-7--------7-7---|-----7-7--------7-7---------7-7----------7-7---|
G|-----7-7------7-7-------7-7--------7-7---|-----7-7--------7-7---------7-7----------7-7---|
D|---9--------8---------7----------6-------|---9----------8-----------7------------6-------|
A|-----------------------------------------|-----------------------------------------------|
E|-----------------------------------------|-----------------------------------------------|
  If I was a shadow and you were a street, The cobblestone midnight is where we first meet

e|---------7-7------------7-7------7-7-----------7-7---|---------------------0-0---|
B|---------7-7------------7-7------7-7-----------7-7---|---------------------2-2---|
G|---------7-7------------7-7------7-7-----------7-7---|-----4---4-----------3-3---|
D|-------9--------------8--------7-------------6-------|-----5---5-----------4-4---|
A|-----------------------------------------------------|-----5---5-----------4-4---|
E|-----------------------------------------------------|---3-------------2---------|
Til the lights flickered out, we dance with the moon,      Then I’d just fade into you

[Chorus]

e|--2---2-------2-----0-------0------0-------3-----3-------3---0--0--0--|
B|--3---3-------3-----2-------2------2-------3-----3-------3---2--2--2--|
G|--4---4-------4-----2-------2------2-------0-----0-------0---3--3--3--|
D|--4---4-------4-----2-------2------2-------0-----0-------0---4--4--4--|
A|--2---2-------2-----0-------0------0-------2-----2-------2---4--4--4--|
E|-------------------------------------------3-----3-------3---2--2--2--|
        In your heart, in your head, in your arms, in your bed under your skin,

e|--2---2-------2-----0-------0------0-------3-3-3---0--0--0--|
B|--3---3-------3-----2-------2------2-------3-3-3---2--2--2--|
G|--4---4-------4-----2-------2------2-------0-0-0---3--3--3--|
D|--4---4-------4-----2-------2------2-------0-0-0---4--4--4--|
A|--2---2-------2-----0-------0------0-------2-2-2---4--4--4--|
E|-------------------------------------------3-3-3---2--2--2--|
        Til there’s no way to know where you end  and where I begin

[Bridge]

e|--2---2-----2----0----0-----0----3----------3-------3---0---0----0--|
B|--3---3-----3----2----2-----2----3----------3-------3---2---2----2--|
G|--4---4-----4----2----2-----2----0----------0-------0---3---3----3--|
D|--4---4-----4----2----2-----2----0----------0-------0---4---4----4--|
A|--2---2-----2----0----0-----0----2----------2-------2---4---4----4--|
E|---------------------------------3----------3-------3---2---2----2--|
      I wanna melt in I wanna soak through, I only wanna move when you move

e|--2---2-----2------0---0--------0--------3--3------3-----0----0--0--|
B|--3---3-----3------2---2--------2--------3--3------3-----2----2--2--|
G|--4---4-----4------2---2--------2--------0--0------0-----3----3--3--|
D|--4---4-----4------2---2--------2--------0--0------0-----4----4--4--|
A|--2---2-----2------0---0--------0--------2--2------2-----4----4--4--|
E|-----------------------------------------3--3------3-----2----2--2--|
      I wanna breathe out when you breathe in then I wanna fade into you

[Verse]

e|-----7-7-------7-7-------7-7---------7-7---|------7-7--------7-7-----7-7----------7-7---|
B|-----7-7-------7-7-------7-7---------7-7---|------7-7--------7-7-----7-7----------7-7---|
G|-----7-7-------7-7-------7-7---------7-7---|------7-7--------7-7-----7-7----------7-7---|
D|---9---------8---------7-----------6-------|----9----------8-------7------------6-------|
A|-------------------------------------------|--------------------------------------------|
E|-------------------------------------------|--------------------------------------------|
  If I was just ashes and you were the ground, And under your willow they laid me down

e|-----7-7----------7-7----------7-7----------7-7---|-------------0-0---|-----7-7-----7-7------7-7-----7-7---|
B|-----7-7----------7-7----------7-7----------7-7---|-------------2-2---|-----7-7-----7-7------7-7-----7-7---|
G|-----7-7----------7-7----------7-7----------7-7---|-----4-4-----3-3---|-----7-7-----7-7------7-7-----7-7---|
D|---9------------8------------7------------6-------|-----5-5-----4-4---|---9-------8--------7-------6-------|
A|--------------------------------------------------|-----5-5-----4-4---|------------------------------------|
E|--------------------------------------------------|---3-------2-------|------------------------------------|
     There’ll be no trace that one was once two,        After I fade into you

[Outro]

e|-----7-7------7-7------7-7------7-7---|-----7-7------7-7------7-7------7-7---|-----------------0-0---|
B|-----7-7------7-7------7-7------7-7---|-----7-7------7-7------7-7------7-7---|-----------------2-2---|
G|-----7-7------7-7------7-7------7-7---|-----7-7------7-7------7-7------7-7---|-----4-4---------3-3---|
D|---9--------8--------7--------6-------|---9--------8--------7--------6-------|-----5-5---------4-4---|
A|--------------------------------------|--------------------------------------|-----5-5---------4-4---|
E|--------------------------------------|--------------------------------------|---3-----------2-------|
     Oooooo   Oooooo   Oooooooooo           Oooooo   Oooooo   Oooooooooo           Then I just fade into you

e|-----7-7------7-7------7-7------7-7---|-----------------0-0---|
B|-----7-7------7-7------7-7------7-7---|-----------------2-2---|
G|-----7-7------7-7------7-7------7-7---|-----4-4---------3-3---|
D|---9--------8--------7--------6-------|-----5-5---------4-4---|
A|--------------------------------------|-----5-5---------4-4---|
E|--------------------------------------|---3-----------2-------|
      Oooooo   Oooooo   Oooooooooo           Then I just fade into you

e|-----7-7------7-7----------------0-0---|-----7-7------7-7----------------0-0------2--|
B|-----7-7------7-7----------------2-2---|-----7-7------7-7----------------2-2------3--|
G|-----7-7------7-7----4-4---------3-3---|-----7-7------7-7----4-4---------3-3------4--|
D|---9--------8--------5-5---------4-4---|---9--------8--------5-5---------4-4------4--|
A|---------------------5-5---------4-4---|---------------------5-5---------4-4------2--|
E|-------------------3-----------2-------|-------------------3-----------2-------------|
                    Then I just fade into you                Then I just fade into you


            
            
Suggest correction
Creating personal tab
Creating personal tab
You can edit any tab online and save it as your Personal.

You can edit, replace or remove any tab part or add personal notes – all changes will be seen only by you.

Personal tabs can be accessed anytime from any device, even offline.
Learn more »
comments
print report bad tab
1 comment total.
0 reply
heatherlawles1 10 4 days ago

love this song so much. need a uke version

guest
You may want to rate the tab now too:
select rating
Wanna post a correction for this tab? Suggest correction