Oops, an error
Loading. Please wait.

My Favorite Hurricane chords

1,246 views 39 this week
1 commentread comment
1 2 3 4 5
x 3
add to favorites
×
Save as Personal and add changes to this tab that will be seen only by you. Learn more ›
×
You can save this tab as Personal to edit and correct it or add notes. All changes will be seen only by you. Learn more »
launch autoscroll
font size
0
reset
transpose
0
reset
simplify chords
display chords
guitar tuner
edit
Autoscroll
slow
fast
+/-
esc
set tempo
stop
Author
Difficulty
Strumming
There is no strumming pattern for this song yet. and get +5 IQ
From the Nashville show: https://www.youtube.com/watch?v=52LgrGEJN74

[Intro]
    E           Eadd9                    Asus2
e|-4---4--------2-----2----------------------|
B|-----------------------------2/4---4~---2--|
G|----------------------------------------2--|
D|---2------2------2-------2-------0------0--|
A|-----------------------------0------0------|
E|-0-----0------0-------0--------------------|

[Verse 1]
        E          Eadd9
I never questioned
E                Eadd9
Not even once
         Asus2
All of the twists and turns 
Asus2
and tumbles of our love
        E          Eadd9
So many nights
E                Eadd9
Down on my knees
          Asus2
Praying to God that 
Asus2
you can learn to forgive me

[Chorus]
     B    A         E     Eadd9  E     Eadd9
And underneath the pain
     B    A         E     Eadd9  E     Eadd9
My favorite hurricane

[Verse 2]
        E          Eadd9
I almost lost you
E                   Eadd9
You may have lost me
                Asus2
You were on the tip of my tongue
Asus2
In the wind like a kiss on my cheek
                 E          Eadd9
But I lost those years
E                        Eadd9
And they've come and gone
                  Asus2
I know they still haunt me
Asus2
Like a lonesome lover's song

[Chorus]
     B    A         E     Eadd9  E     Eadd9
And underneath the pain
     B    A         E     Eadd9  E     Eadd9
My favorite hurricane

[Bridge]
    B     A
And all   I 
E
ever did to you and you ever did to me
    B     A
was all   we
E
all we had to do to keep on breathing
    B   A
Now I   see 
      B                   A
that  all  along  your    shadow
       E
Was my only way of staying in the light
   B     A
I fell   down,
        E
broke all the pieces, Every time
    B        A
you saved    me
     B
From coming all undone

[Solo]
   E           Eadd9                      Asus2
e|-4---4--------2-----2---------------------------|
B|-----------------------------2/4---4~---2---2---|
G|------------------------------------------------|
D|---2------2------2-------2-------0------0---0---|
A|-----------------------------0------0-----0---0-|
E|-0-----0------0-------0-------------------------|

    E           Eadd9                    Asus2
e|-4---4--------2-----2----------------------|
B|-----------------------------2/4---4~---2--|
G|----------------------------------------2--|
D|---2------2------2-------2-------0------0--|
A|-----------------------------0------0------|
E|-0-----0------0-------0--------------------|

[Chorus]
    B    A         E     Eadd9  E     Eadd9
And underneath the pain
           B    A         E     
You're my favorite hurricane

************************************
| /   Slide up
| ~   Vibrato
************************************

            
            
Suggest correction
Creating personal tab
Creating personal tab
You can edit any tab online and save it as your Personal.

You can edit, replace or remove any tab part or add personal notes – all changes will be seen only by you.

Personal tabs can be accessed anytime from any device, even offline.
Learn more »
Give kudos to tab author, rate the tab!
1 2 3 4 5
comments
print report bad tab
1 comment total.
0 reply
alfie.rudd123 10 Sep 24, 2017 08:31 AM

got to learn it for my sister, she obsessed

guest
You may want to rate the tab now too:
select rating
Wanna post a correction for this tab? Suggest correction