Oops, an error
Loading. Please wait.

Just Kind Tab

version 1
version 1

Whole song

Interactive

1,360 views 6 this week
no commentswrite comment
1 2 3 4 5
please rate
add to favorites
launch autoscroll
font size
0
reset
how to read this tab
guitar tuner
Tab Pro tools
  • play this tab
  • loop segment
  • change instrument
  • show fretboard
  • metronome
Autoscroll
slow
fast
+/-
esc
set tempo
stop
Contributor
Difficulty
Tuning
intermediate
C G C F A D
here are the original 'nasty' guitar tabs for 'just kind'. 
the rythm is not 100% correct, but i think you can figure it out by hearing the song. 
tuning is drop c [C G C F A D].

x - palm mute
h - harmonic


RIFF1

D|------------------------------------------------------------------------| 
A|------------------------------------------------------------------------| 
F|------------------------------------------------------------------------|
C|------------------------------------------------------------------------| 
G|-00-000-0-0000----------------------------------------------------------|
C|-00-000-0-0000----------------------------------------------------------|
   xx xxx x xxxx
D|------------------------------------------------------------------------| 
A|------------------------------------------------------------------------| 
F|------------------------------------------------------------------------|
C|------------------------------------------------------------------------| 
G|-00-000-0-0000----------------------------------------------------------|
C|-00-000-0-0000--------slide---------------------------------------------|
   xx xxx x xxxx


RIFF2

D|------------------------------------------------------------------------| 
A|------------------------------------------------------------------------| 
F|------------------------------------------------------------------------|
C|------------------------------------------------------------------------| 
G|-0076--0004-0323-0211---------------------------------------------------|
C|-0076--0004-0323-0211---------------------------------------------------|X2
   xx    xxx  x    x xx
D|------------------------------------------------------------------------| 
A|------------------------------------------------------------------------| 
F|------------------------------------------------------------------------|
C|------------------------------------------------------------------------| 
G|-----7-6--------4-------------------------------------------------------|
C|-00007-6--0000004--00332233-22221111------------------------------------|X3
   xxxx     xxxxxx   xxxxxxxx xxxxxxxx
D|------------------------------------------------------------------------| 
A|------------------------------------------------------------------------| 
F|------------------------------------------------------------------------|
C|------------------------------------------------------------------------| 
G|-0076--0004-0323-0211---------------------------------------------------|
C|-0076--0004-0323-0211---------------------------------------------------|X2
   xx    xxx  x    x xx


RIFF3

D|-------------------|----------------------------------------------------| 
A|-------------------|----------------------------------------------------| 
F|-------------------|----------------------------------------------------|
C|-------------------|----------------------------------------------------| 
G|-1-0--212-0--3-1---|-1-0--212-000-111-222-333---------------------------|
C|-1-0--212-0--3-1-2-|-1-0--212-000-111-222-333---------------------------|X2
                   h


RIFF4

D|------------------------------------------------------------------------| 
A|------------------------------------------------------------------------| 
F|------------------------------------------------------------------------|
C|------------------------------------------------------------------------| 
G|----------3----------1-4-2------------3-------1--4--4-------------------|
C|-000-000--3--000-000-1-4-2---000-000--3--000--1--4--4-------------------|

D|------------------------------------------------------------------------| 
A|------------------------------------------------------------------------| 
F|------------------------------------------------------------------------|
C|------------------------------------------------------------------------| 
G|----------3----------1-4-2------------3-------1--1----------------------|
C|-000-000--3--000-000-1-4-2---000-000--3--000--1--1---Slide--------------|



D|-------------------|---------------|-----------------|------------------| 
A|-------------------|---------------|-----------------|------------------| 
F|-------------------|---------------|-----------------|------------------|
C|-------------------|---------------|-----------------|------------------| 
G|----------3--------|---------1-4-2-|----------3------|--1-------1-------|
C|-000-000--3-0-0-0--|-000-000-1-4-2-|--000-000-3-0-0-0|--1--0-0-01-0-4---|X2
                                                                    h

RIFF5

D|------------------------------------------------------------------------| 
A|------------------------------------------------------------------------| 
F|------------------------------------------------------------------------|
C|------------------------------------------------------------------------| 
G|-0-1-2-0-4-3-0-2-0-1-0-4-3-0-1~-----------------------------------------|
C|-0-1-2-0-4-3-0-2-0-1-0-4-3-0-1~-----------------------------------------|X4
   x x x x x x x x x x x x x x 


RIFF2

D|------------------------------------------------------------------------| 
A|------------------------------------------------------------------------| 
F|------------------------------------------------------------------------|
C|------------------------------------------------------------------------| 
G|-----7-6--------4-------------------------------------------------------|
C|-00007-6--0000004--00332233-22221111------------------------------------|X3
   xxxx     xxxxxx   xxxxxxxx xxxxxxxx
D|------------------------------------------------------------------------| 
A|------------------------------------------------------------------------| 
F|------------------------------------------------------------------------|
C|------------------------------------------------------------------------| 
G|-0076--0004-0323-0211---------------------------------------------------|
C|-0076--0004-0323-0211---------------------------------------------------|X3
   xx    xxx  x    x xx


RIFF1

D|------------------------------------------------------------------------| 
A|------------------------------------------------------------------------| 
F|------------------------------------------------------------------------|
C|------------------------------------------------------------------------| 
G|-00-000-0-0000----------------------------------------------------------|
C|-00-000-0-0000----------------------------------------------------------|
   xx xxx x xxxx
D|------------------------------------------------------------------------| 
A|------------------------------------------------------------------------| 
F|------------------------------------------------------------------------|
C|------------------------------------------------------------------------| 
G|-00-000-0-0000----------------------------------------------------------|
C|-00-000-0-0000--------slide---------------------------------------------|
   xx xxx x xxxx
     

RIFF3

D|-------------------|----------------------------------------------------| 
A|-------------------|----------------------------------------------------| 
F|-------------------|----------------------------------------------------|
C|-------------------|----------------------------------------------------| 
G|-1-0--212-0--3-1---|-1-0--212-000-111-222-333---------------------------|
C|-1-0--212-0--3-1-2-|-1-0--212-000-111-222-333---------------------------|X2
                   h


RIFF6

D|------------------------------|-----------------------------------------| 
A|------------------------------|-----------------------------------------| 
F|------------------------------|-----------------------------------------|
C|------------------------------|-----------------------------------------| 
G|-000-111-222-333--------------|-000-111-222-3~~~------------------------|
C|-000-111-222-333------------X3|-000-111-222-3~~~------------------------|
   xxx xxx xxx xxx

D|------------------------------------------------------------------------| 
A|------------------------------------------------------------------------| 
F|------------------------------------------------------------------------|
C|------------------------------------------------------------------------| 
G|--0-1-2-3---------------------------------------------------------------|
C|--0-1-2-3---------------------------------------------------------------|X4
    x x x x

comments
We did not receive enough feedback on this tab! Please rate:
print report bad tab
1 2 3 4 5
I want to post or [tab]
guest
You may want to rate the tab now too:
select rating
Please do not post tabs as comments. Select "correction" instead!