Oops, an error
Loading. Please wait.

Engine Of Death Tab

version 1
version 1

Solo

Interactive

666 views 1 this week
no commentswrite comment
1 2 3 4 5
please rate
add to favorites
launch autoscroll
font size
0
reset
how to read this tab
guitar tuner
Tab Pro tools
  • play this tab
  • loop segment
  • change instrument
  • show fretboard
  • metronome
Autoscroll
slow
fast
+/-
esc
set tempo
stop
Contributor
Band: Nasum
Album: Shift
Song: The Engine Of Death
Copyright (c)  Burning Heart/Relapse/No Tolerance, 2004

Tab Written On - April 10th, 2007

Transcribed By: Jordan J.
Email: spotlight_72@hotmail.com

Legend:
\  - slide down to
/  - slide up to
~ - vibrato
h - hammer
p - pull off
t - tap

Tuning: Standard
(E A D G B E)

(solo)

E|----------------------------------------|
B|----------------------------------------|
G|--------~17---------~15-----------------|
D|-/~17----------~17---------~16----------|
A|----------------------------------------|
D|------------------------------------~14-|

E|-------------------------------------------------------------|
B|-------------------------------------------------------------|
G|-15/17--~18---17h18p17--15-17-15---15------------------------|
D|---------------------------------18--18--17--15--17--15--~14-|
A|-------------------------------------------------------------|
D|-------------------------------------------------------------|

E|--------------------------------------------------|
B|--------------------------------------------------|
G|----------10-----------------10-11-13-11-10----10-|(Not sure on this part)
D|--10h11h13----13-11-10-11--13---------------13----|
A|--------------------------------------------------|
D|--------------------------------------------------|

E|-------------------------------------------------------------|
B|-------------------------------------------------------------|
G|--------------------t19p15p12-t19p15p12-t19p15p12-t19p15p12--|
D|-----------15h17h18------------------------------------------|  
A|--15h17h18---------------------------------------------------|
D|-------------------------------------------------------------|

E|------------------------------------------|
B|--t19p16p13-t19p16p13-t19p16p13-t19p16p13-|
G|------------------------------------------|
D|------------------------------------------|  
A|------------------------------------------|
D|------------------------------------------|

E|----15/--|
B|---------|
G|---------| (strike this note with some damn force!)
D|---------|  
A|---------|
D|---------|

(end solo)


Finished...

This is my first solo tab, and its about 90 % correct, but it should be overall good to go =D! 

Nasum = Kings Of Grind!

- Jordo.
comments
We did not receive enough feedback on this tab! Please rate:
print report bad tab
1 2 3 4 5
I want to post or [tab]
guest
You may want to rate the tab now too:
select rating
Please do not post tabs as comments. Select "correction" instead!