Oops, an error
Loading. Please wait.

Last Station tab

1,521 views 1 this week
no commentswrite comment
1 2 3 4 5
2 more votes to show rating
add to favorites
×
Save as Personal and add changes to this tab that will be seen only by you. Learn more ›
×
You can save this tab as Personal to edit and correct it or add notes. All changes will be seen only by you. Learn more »
launch autoscroll
font size
0
reset
how to read this tab
guitar tuner
edit
Autoscroll
slow
fast
+/-
esc
set tempo
stop
-------------------------------------------------------------------------------
                             SONG NAME - Band Name
-------------------------------------------------------------------------------
Tabbed by: Fiderian
E-mail: Melissa604@optonline.net

(I hope this is somewhat close/I did this song some justice ;) It's super pretty and The 
Fault in Our Stars gets 38 out of 37 John Snows for exceeding expectations)

Guitar 1 - Standard

Guitar 2 - Capo on Fourth Fret

Tuning:
                                         *
e|-------------2------------------2-----------------2-------------------2----|
B|-----3----3------3-----2---3----------------3-----------3----------3-------|   Guitar 1
G|---------------------------------------2----------------------2------------|
D|---------------------------------------------------------------------------|
A|---------------------------------------------------------------------------|
E|---------------------------------------------------------------------------|

e|---------------------------------------------------------------------------|
B|---------------------------------------------------------------------------|
G|---3---3---2---2---0---0--------------3------------------------------------| Guitar 2 (c4)
D|-----------------------------3---3-----------------------------------------| (repeat this basically
A|---------------------------------------------------------------------------|  the entire song)
E|---------------------------------------------------------------------------|

(It basically repeats the D/F, A, G, C# then D/F, A, G, Bm all the verses, the only 
thing that changes is the F# usually goes to D so unless there is an Bm, assume D.)

Except for the chorus, you'll only strum each chord once.

What can I offer you
I know you've had a drink or two
Stumbling around in 6 inch heels I wish we could talk like you were no big deal
D/F     A    G      C#      D/F    A            G      Bm
What can I do for you that other men haven't done to you
                                                                              D
When my hair recedes and I lose my sight how can I hold your hand through the night

*

G                             D/F
Follow your train to its last station
G               D/F
Follow, follow, follow
G                        D/F
Follow your train to its last station
Bm      Bm      G
Follow, follow, follow

*

If the taste of someone else's love
                                     Bm
Scattered like confetti in the stars above
Like an old movie playing in the park,
                                                    D
I know the end but I'll watch it all fall up in the dark
Yes so carry me Los Angeles
                               Bm
I'm stuck here on your waiting list
Giving me looks but I'm giving them away
I can't hear you over the music anyway

*

Follow your train to its last station
Follow, follow, follow
Follow your train to its last station
Bm      Bm      G
Follow, follow, follow
Bm      Bm      G
Follow, follow, follow

I never burned through love that let me loose
                                         Bm
I only set the table for the companies I choose
Baby I'll be your ashtray
Tomorrow will be a brand new day

Follow your train to its last station
Follow, follow, follow
Follow your train to its last station
Follow, follow, follow
Follow your train to its last station
Follow, follow, follow
Follow your train to its last station
Follow, follow, follow
Follow, follow, follow
Follow, follow, follow

            
            
Suggest correction
Creating personal tab
Creating personal tab
You can edit any tab online and save it as your Personal.

You can edit, replace or remove any tab part or add personal notes – all changes will be seen only by you.

Personal tabs can be accessed anytime from any device, even offline.
Learn more »
Give kudos to tab author, rate the tab!
1 2 3 4 5
comments
print report bad tab
guest
You may want to rate the tab now too:
select rating
Wanna post a correction for this tab? Suggest correction