Oops, an error
Loading. Please wait.

Somewhere Along The Way Bass Tab

19 views 3 this week
no commentswrite comment
1 2 3 4 5
3 more votes to show rating
add to favorites
launch autoscroll
font size
0
reset
guitar tuner
Autoscroll
slow
fast
+/-
esc
set tempo
stop
Help us to improve Ultimate-Guitar.com Take our survey!
×
Author
Difficulty
From the 1961 album "The Nat King Cole Story"

[Verse 1]: "I used to walk with you..."
G|------------------------------------------------------------------|
D|---------4-------5-------------------------------5-7---7----------|
A|-5------------------------------7-9-------7---7------------5---5--|
E|-------------------------8---8--------7---------------------------|


[Verse 2]: "The friends we used to know..."
G|----------------------------------------------------------------|
D|---------4---4---5---5---------------------------7---7----------|
A|-5---5---------------------------9-------7---7-----------5---5--|
E|-------------------------8---8-------7--------------------------|


[Bridge 1]: "I should forget..."
G|-------------------------------------------------------------------------|
D|-----------6-6---------------6---5-------------6-6--------------------7--|
A|-9-9--9-9------------9---7-----------9-9--9-9------------9---9--5-7------|
E|----------------9-9---------------------------------9-9------------------|


[Verse 3]: "So now I look for you..."
G|-----------------------------------------------------------------|
D|---------4---4---5---5----------------9-----------7---7----------|
A|-5---5--------------------------7-9-------7---7-----------5---4--|
E|-------------------------8---8-----------------------------------|


[Bridge 2]: "I should forget..."
G|-------------------------------------------------------------------------|
D|-----------------------------------------------6-6--------------------7--|
A|-------------------------------------9-9--9-9------------9---9--5-7------|
E|----------------------------------------------------9-9------------------|


[Verse 4]: "So now I look for you..."
G|--------------------------------------------------------------------------------------------------|
D|---------4---4---5---5----------------9-----------7---7----4---9-----------------------------------|
A|-5---5--------------------------7-9-------7---7----------6---------7-----------------------------5-|
E|-------------------------8---8---------------------------------------------------------------------|
Suggest correction
Give kudos to tab author, rate the tab!
1 2 3 4 5
comments
print report bad tab
guest
You may want to rate the tab now too:
select rating
Wanna post a correction for this tab? Suggest correction