Oops, an error
Loading. Please wait.

Saul tab

62 views 1 this week
no commentswrite comment
1 2 3 4 5
3 more votes to show rating
add to favorites
×
Save as Personal and add changes to this tab that will be seen only by you. Learn more ›
×
You can save this tab as Personal to edit and correct it or add notes. All changes will be seen only by you. Learn more »
launch autoscroll
font size
0
reset
how to read this tab
guitar tuner
edit
Autoscroll
slow
fast
+/-
esc
set tempo
stop
Este es mi primera aportación y espero que pronto muchas mas.
Esta canción la saque a oído, por lo que puede a lo mejor tener
o no algunas fallas nada mas en el solo. Por lo demás esta bien.

Espero les guste.

Acordes

  B          E
EbDGAE     EbDGAE
778997     779977

Este es el riff con que va la mitad de la canción y
la otra mitad va con acordes.

El riff dura todo lo que dura cada renglón o verso

RIFF 1)

e:-----7--------------7-----------------------------7---------
B:--8-----8-6-6h8--8-----8-6-6s8-----6-----------8-----8-6-6s8
G:--------------------------------8-----8-6-6s8---------------
D:------------------------------------------------------------
A:------------------------------------------------------------
E:------------------------------------------------------------

1)
Soy una chica en las mañanas me lavo el cabello
1)
Pinto mis uñas y me visto de rosa y son verdes
1)
Luego me maquillo y cuando yo camino la gente me mira insistente
1)
Cuando estoy contigo solo quiero nieve de fresa

B E B B E B
1)
soy una chica uso tacones de plástico
1)
Huele mi cuello es aroma de rosas y nuez
1)
Cuando llego a casa frente la ventana puedo ver tu cara de lejos
1)
Cuando llego a casa puedo ver como el dia termina
   E               B                 E
Y el esperando es toda la realidad que triste entender
B                           E         B
Como ellas no puedo ser  y el espejo nunca miente
 E                      B
No puedo soltar mi labial


-solo-

e:-------------------------------------------------------
B:--7-9-12-9-12-9-7-9-12-9-12-9-7-9s14-14-12-12-9-7-9--12
G:-------------------------------------------------------
D:-------------------------------------------------------
A:-------------------------------------------------------
E:-------------------------------------------------------

e:---------------------------------11-------------------
B:--7-9-12-9-12-9-7-9-12-9-7-9s14-----14-12-9-7-9-12--12
G:------------------------------------------------------
D:------------------------------------------------------
A:------------------------------------------------------
E:------------------------------------------------------


B
Lo malo es que me llamo saul
E
Y el mundo no lo quiere entender
B
Lo malo es que me llamo saul
E                             B
Y el mundo no lo quire entender
B                                       E                B
Lo malo es que me llamo saul  es saul es saul saul es saul
B                                   E             B
Lo malo es que me llamo saul saul saul es saul saul
Suggest correction
Creating personal tab
Creating personal tab
You can edit any tab online and save it as your Personal.

You can edit, replace or remove any tab part or add personal notes – all changes will be seen only by you.

Personal tabs can be accessed anytime from any device, even offline.
Learn more »
Give kudos to tab author, rate the tab!
1 2 3 4 5
comments
print report bad tab
guest
Wanna post a correction for this tab? Suggest correction