Oops, an error
Loading. Please wait.

Ser Humano bass

87 views 3 this week
no commentswrite comment
1 2 3 4 5
3 more votes to show rating
add to favorites
×
Save as Personal and add changes to this tab that will be seen only by you. Learn more ›
×
You can save this tab as Personal to edit and correct it or add notes. All changes will be seen only by you. Learn more »
launch autoscroll
font size
0
reset
guitar tuner
edit
Autoscroll
slow
fast
+/-
esc
set tempo
stop
Hola, qué tal. La tablatura anterior tenía unas partes que no quedaban,
por lo que intenté corregirla. Espero les sirva.

Intro (0:07)

G||--------------------|------------------------|------------------------|
D||--------------------|--------5-----5---------|--------5-----5---------|
A||---------------7----|-----7-----7-------7----|-----7-----7-------7----|
E||--------------------|------------------------|------------------------|

G|------------------------|------------------------|
D|--------5-----5---------|------------------------|
A|-----7-----7-------7----|-----------5--7----7----|
E|------------------------|-----0--7---------------|

Se repiten todo 4 veces, con excepción del primer compás.

Primer verso (entra en 0:43)

G|----------------------|--------------------------|
D|----------------------|--------------------------|
A|---------/7-----------|--7--7--5--5--4--4--------|
E|-------------------7--|--------------------7--7--|

G|-----------------------|---------------------|
D|-----------------------|---------------------|
A|--7------7--------5----|--7------7-----------|
E|------------7--7-------|------------7--------|

G|-----------------------|---------------------|
D|-----------------------|---------------------|
A|--7------7--------5----|--7------7-----------|
E|------------7--7-------|------------7--7-----|

G|-----------------------|---------------------|
D|-----------------------|---------------------|
A|--7------7--------5----|--7------7-----------|
E|------------7--7-------|------------7--------|

G|-----------------------|-----------------------|
D|-----------------------|-----------------------|
A|--7------7--------5----|--7---------5-----5----|
E|------------7--7-------|---------7-----7-------|

Primer coro (0:59)

G|--------------------------|--------------------------|
D|--------------------------|--------------------------|
A|--------------------------|--------------------------|
E|--3--3--3--3--3--3--3--3--|--5--5--5--5--5--5--5--5--|

G|-----------------------|-----------------------|
D|-----------------------|-----------------------|
A|-----------------------|-----------------------|
E|--0------0--3--0--3----|--0------0--3--0--3----|

G|--------------------------|--------------------------|
D|--------------------------|--------------------------|
A|--------------------------|--------------------------|
E|--3--3--3--3--3--3--3--3--|--5--5--5--5--5--5--5--5--|

G|-----------------------|-----------------------|
D|-----------------------|-----------------------|
A|-----------------------|-----------------------|
E|--0------0--3--0--3----|--0------0--12--------|

Segundo verso (1:13)

G|-----------------------|---------------------|
D|-----------------------|---------------------|
A|--7------7--------5----|--7------7-----------|
E|------------7--7-------|------------7--------|

G|-----------------------|---------------------|
D|-----------------------|---------------------|
A|--7------7--------5----|--7------7-----------|
E|------------7--7-------|------------7--7-----|

Se repiten estos cuatro compases 3 veces.

G|-----------------------|---------------------|
D|-----------------------|---------------------|
A|--7------7--------5----|--7------7-----------|
E|------------7--7-------|------------7--------|

G|-----------------------|-----------------------|
D|-----------------------|------------5-----5----|
A|--7------7--------5----|--7------7-----7-------|
E|------------7--7-------|-----------------------|

Segundo coro (1:39)

G|--------------------------|--------------------------|
D|--------------------------|--------------------------|
A|--------------------------|--------------------------|
E|--3--3--3--3--3--3--3--3--|--5--5--5--5--5--5--5--5--|

G|-----------------------|-----------------------|
D|-----------------------|-----------------------|
A|-----------------------|-----------------------|
E|--0------0--3--0--3----|--0------0--3--0--3----|

Se repiten 3 veces los cuatro compases.

G|-------------------------|-------------------------|
D|-------------------------|-------------------------|
A|-------------------------|-------------------------|
E|-15-15-15-15-15-15-15-15-|-17-17-17-17-17-17-17-17-|

G|-----------------------|-----------------------|
D|-----------------------|-----------------------|
A|--7------7--5--7-------|--7--------------------|
E|-----------------------|-----------------------|


Solo (2:05)

G|-----------------------|-----------------------|
D|-----------------------|-----------------------| x2
A|--7------7--5--7-------|---------7--5--7--7----|
E|-----------------------|-----------------------|

G|-----------------------|-----------------------|
D|-----------------------|-----------------------|
A|--5------5--3--5-------|--5------5--3--5--5----|
E|-----------------------|-----------------------|

G|-----------------------|-----------------------|
D|-----------------------|-----------------------| x3
A|--7------7--5--7-------|---------7--5--7--7----|
E|-----------------------|-----------------------|

G|-----------------------|-----------------------|
D|-----------------------|-----------------------|
A|--5------5--3--5-------|--5------5--3--5--5----|
E|-----------------------|-----------------------|

G|-----------------------|--------------------------|
D|-----------------------|--------------------------|
A|--7-----7--5--7--------|--7--7--7--7--7--7--7--7--|
E|-----------------------|--------------------------|

Outro (2:44)

G|--------------------------|
D|--------------------------|
A|--------------------------|
E|--0--0--0--0--0--0--0--0--|

G|--------------------------|--------------------------|
D|--------------------------|--------------------------|
A|--------------------------|--------------------------|
E|--3--3--3--3--3--3--3--3--|--5--5--5--5--5--5--5--5--|

G|-----------------------|-----------------------|
D|-----------------------|-----------------------|
A|-----------------------|-----------------------|
E|--0------0--3--0--3----|--0------0--3--0--3----|

G|--------------------------|--------------------------|
D|--------------------------|--------------------------|
A|--------------------------|--------------------------|
E|--3--3--3--3--3--3--3--3--|--1--1--1--1--1--1--1--1--|

G|-----------------------|-----------------------|
D|-----------------------|-----------------------|
A|-----------------------|-----------------------|
E|--0------0--3--0--3----|--0------0--3--0--3----|

G|--------------------------|--------------------------|
D|--------------------------|--------------------------|
A|--------------------------|--------------------------|
E|--3--3--3--3--3--3--3--3--|--5--5--5--5--5--5--5--5--|

G|-----------------------|-----------------------|
D|-----------------------|-----------------------|
A|-----------------------|-----------------------|
E|--0------0--3--0--3----|--0------0--3--0--3----|

Repite los últimos cuatro versos hasta que se termine la canción.
Pepis.
Suggest correction
Creating personal tab
Creating personal tab
You can edit any tab online and save it as your Personal.

You can edit, replace or remove any tab part or add personal notes – all changes will be seen only by you.

Personal tabs can be accessed anytime from any device, even offline.
Learn more »
Give kudos to tab author, rate the tab!
1 2 3 4 5
comments
print report bad tab
guest
Wanna post a correction for this tab? Suggest correction